  0
SECTION
  2
HEADER
  9
$ACADVER
  1
AC1015
  9
$ACADMAINTVER
 70
     6
  9
$DWGCODEPAGE
  3
ANSI_1252
  9
$INSBASE
 10
0.0
 20
0.0
 30
0.0
  9
$EXTMIN
 10
0.0
 20
0.0
 30
0.0
  9
$EXTMAX
 10
841.0
 20
594.0
 30
0.0
  9
$LIMMIN
 10
0.0
 20
0.0
  9
$LIMMAX
 10
841.0
 20
594.0
  9
$ORTHOMODE
 70
     0
  9
$REGENMODE
 70
     1
  9
$FILLMODE
 70
     1
  9
$QTEXTMODE
 70
     0
  9
$MIRRTEXT
 70
     1
  9
$LTSCALE
 40
1.0
  9
$ATTMODE
 70
     1
  9
$TEXTSIZE
 40
3.5
  9
$TRACEWID
 40
1.0
  9
$TEXTSTYLE
  7
Standard
  9
$CLAYER
  8
0
  9
$CELTYPE
  6
ByLayer
  9
$CECOLOR
 62
   256
  9
$CELTSCALE
 40
1.0
  9
$DISPSILH
 70
     0
  9
$DIMSCALE
 40
1.0
  9
$DIMASZ
 40
6.0
  9
$DIMEXO
 40
1.0
  9
$DIMDLI
 40
3.75
  9
$DIMRND
 40
0.0
  9
$DIMDLE
 40
0.0
  9
$DIMEXE
 40
1.0
  9
$DIMTP
 40
0.0
  9
$DIMTM
 40
0.0
  9
$DIMTXT
 40
3.5
  9
$DIMCEN
 40
2.5
  9
$DIMTSZ
 40
0.0
  9
$DIMTOL
 70
     0
  9
$DIMLIM
 70
     0
  9
$DIMTIH
 70
     1
  9
$DIMTOH
 70
     1
  9
$DIMSE1
 70
     0
  9
$DIMSE2
 70
     0
  9
$DIMTAD
 70
     1
  9
$DIMZIN
 70
     0
  9
$DIMBLK
  1

  9
$DIMASO
 70
     1
  9
$DIMSHO
 70
     1
  9
$DIMPOST
  1

  9
$DIMAPOST
  1

  9
$DIMALT
 70
     0
  9
$DIMALTD
 70
     3
  9
$DIMALTF
 40
0.0393700787
  9
$DIMLFAC
 40
1.0
  9
$DIMTOFL
 70
     1
  9
$DIMTVP
 40
0.0
  9
$DIMTIX
 70
     0
  9
$DIMSOXD
 70
     0
  9
$DIMSAH
 70
     0
  9
$DIMBLK1
  1

  9
$DIMBLK2
  1

  9
$DIMSTYLE
  2
ISO-25
  9
$DIMCLRD
 70
     0
  9
$DIMCLRE
 70
     0
  9
$DIMCLRT
 70
     0
  9
$DIMTFAC
 40
1.0
  9
$DIMGAP
 40
1.524
  9
$DIMJUST
 70
     0
  9
$DIMSD1
 70
     0
  9
$DIMSD2
 70
     0
  9
$DIMTOLJ
 70
     0
  9
$DIMTZIN
 70
     0
  9
$DIMALTZ
 70
     0
  9
$DIMALTTZ
 70
     0
  9
$DIMUPT
 70
     0
  9
$DIMDEC
 70
     3
  9
$DIMTDEC
 70
     3
  9
$DIMALTU
 70
     2
  9
$DIMALTTD
 70
     3
  9
$DIMTXSTY
  7
Standard
  9
$DIMAUNIT
 70
     0
  9
$DIMADEC
 70
     2
  9
$DIMALTRND
 40
0.0
  9
$DIMAZIN
 70
     0
  9
$DIMDSEP
 70
    44
  9
$DIMATFIT
 70
     3
  9
$DIMFRAC
 70
     0
  9
$DIMLDRBLK
  1

  9
$DIMLUNIT
 70
     2
  9
$DIMLWD
 70
    -2
  9
$DIMLWE
 70
    -2
  9
$DIMTMOVE
 70
     0
  9
$LUNITS
 70
     2
  9
$LUPREC
 70
     2
  9
$SKETCHINC
 40
1.0
  9
$FILLETRAD
 40
10.0
  9
$AUNITS
 70
     0
  9
$AUPREC
 70
     2
  9
$MENU
  1
.
  9
$ELEVATION
 40
0.0
  9
$PELEVATION
 40
0.0
  9
$THICKNESS
 40
0.0
  9
$LIMCHECK
 70
     0
  9
$CHAMFERA
 40
10.0
  9
$CHAMFERB
 40
10.0
  9
$CHAMFERC
 40
20.0
  9
$CHAMFERD
 40
0.0
  9
$SKPOLY
 70
     0
  9
$TDCREATE
 40
2455413.453052419
  9
$TDUCREATE
 40
2455413.369719086
  9
$TDUPDATE
 40
2455413.45305243
  9
$TDUUPDATE
 40
2455413.369719097
  9
$TDINDWG
 40
0.0000000116
  9
$TDUSRTIMER
 40
0.0000000116
  9
$USRTIMER
 70
     1
  9
$ANGBASE
 50
0.0
  9
$ANGDIR
 70
     0
  9
$PDMODE
 70
     0
  9
$PDSIZE
 40
-1.0
  9
$PLINEWID
 40
0.0
  9
$SPLFRAME
 70
     0
  9
$SPLINETYPE
 70
     6
  9
$SPLINESEGS
 70
     8
  9
$HANDSEED
  5
39F
  9
$SURFTAB1
 70
     6
  9
$SURFTAB2
 70
     6
  9
$SURFTYPE
 70
     6
  9
$SURFU
 70
     6
  9
$SURFV
 70
     6
  9
$UCSBASE
  2

  9
$UCSNAME
  2

  9
$UCSORG
 10
0.0
 20
0.0
 30
0.0
  9
$UCSXDIR
 10
1.0
 20
0.0
 30
0.0
  9
$UCSYDIR
 10
0.0
 20
1.0
 30
0.0
  9
$UCSORTHOREF
  2

  9
$UCSORTHOVIEW
 70
     0
  9
$UCSORGTOP
 10
0.0
 20
0.0
 30
0.0
  9
$UCSORGBOTTOM
 10
0.0
 20
0.0
 30
0.0
  9
$UCSORGLEFT
 10
0.0
 20
0.0
 30
0.0
  9
$UCSORGRIGHT
 10
0.0
 20
0.0
 30
0.0
  9
$UCSORGFRONT
 10
0.0
 20
0.0
 30
0.0
  9
$UCSORGBACK
 10
0.0
 20
0.0
 30
0.0
  9
$PUCSBASE
  2

  9
$PUCSNAME
  2

  9
$PUCSORG
 10
0.0
 20
0.0
 30
0.0
  9
$PUCSXDIR
 10
1.0
 20
0.0
 30
0.0
  9
$PUCSYDIR
 10
0.0
 20
1.0
 30
0.0
  9
$PUCSORTHOREF
  2

  9
$PUCSORTHOVIEW
 70
     0
  9
$PUCSORGTOP
 10
0.0
 20
0.0
 30
0.0
  9
$PUCSORGBOTTOM
 10
0.0
 20
0.0
 30
0.0
  9
$PUCSORGLEFT
 10
0.0
 20
0.0
 30
0.0
  9
$PUCSORGRIGHT
 10
0.0
 20
0.0
 30
0.0
  9
$PUCSORGFRONT
 10
0.0
 20
0.0
 30
0.0
  9
$PUCSORGBACK
 10
0.0
 20
0.0
 30
0.0
  9
$USERI1
 70
     0
  9
$USERI2
 70
     0
  9
$USERI3
 70
     0
  9
$USERI4
 70
     0
  9
$USERI5
 70
     0
  9
$USERR1
 40
0.0
  9
$USERR2
 40
0.0
  9
$USERR3
 40
0.0
  9
$USERR4
 40
0.0
  9
$USERR5
 40
0.0
  9
$WORLDVIEW
 70
     1
  9
$SHADEDGE
 70
     3
  9
$SHADEDIF
 70
    70
  9
$TILEMODE
 70
     1
  9
$MAXACTVP
 70
    64
  9
$PINSBASE
 10
0.0
 20
0.0
 30
0.0
  9
$PLIMCHECK
 70
     0
  9
$PEXTMIN
 10
1.0000000000E+20
 20
1.0000000000E+20
 30
1.0000000000E+20
  9
$PEXTMAX
 10
-1.0000000000E+20
 20
-1.0000000000E+20
 30
-1.0000000000E+20
  9
$PLIMMIN
 10
0.0
 20
0.0
  9
$PLIMMAX
 10
420.0
 20
297.0
  9
$UNITMODE
 70
     0
  9
$VISRETAIN
 70
     1
  9
$PLINEGEN
 70
     0
  9
$PSLTSCALE
 70
     1
  9
$TREEDEPTH
 70
  3020
  9
$CMLSTYLE
  2
Standard
  9
$CMLJUST
 70
     0
  9
$CMLSCALE
 40
20.0
  9
$PROXYGRAPHICS
 70
     1
  9
$MEASUREMENT
 70
     1
  9
$CELWEIGHT
370
    -1
  9
$ENDCAPS
280
     0
  9
$JOINSTYLE
280
     0
  9
$LWDISPLAY
290
     1
  9
$INSUNITS
 70
     4
  9
$HYPERLINKBASE
  1

  9
$STYLESHEET
  1

  9
$XEDIT
290
     1
  9
$CEPSNTYPE
380
     0
  9
$PSTYLEMODE
290
     1
  9
$FINGERPRINTGUID
  2
{991B6F74-C108-4998-B39E-104A58279843}
  9
$VERSIONGUID
  2
{FAEB1C32-E019-11D5-929B-00C0DF256EC4}
  9
$EXTNAMES
290
     1
  9
$PSVPSCALE
 40
0.0
  9
$OLESTARTUP
290
     0
  0
ENDSEC
  0
SECTION
  2
CLASSES
  0
CLASS
  1
ACDBDICTIONARYWDFLT
  2
AcDbDictionaryWithDefault
  3
ObjectDBX Classes
 90
        0
280
     0
281
     0
  0
CLASS
  1
VISUALSTYLE
  2
AcDbVisualStyle
  3
ObjectDBX Classes
 90
     4095
280
     0
281
     0
  0
CLASS
  1
DICTIONARYVAR
  2
AcDbDictionaryVar
  3
ObjectDBX Classes
 90
        0
280
     0
281
     0
  0
CLASS
  1
ACDBPLACEHOLDER
  2
AcDbPlaceHolder
  3
ObjectDBX Classes
 90
        0
280
     0
281
     0
  0
CLASS
  1
LAYOUT
  2
AcDbLayout
  3
ObjectDBX Classes
 90
        0
280
     0
281
     0
  0
ENDSEC
  0
SECTION
  2
TABLES
  0
TABLE
  2
VPORT
  5
8
330
0
100
AcDbSymbolTable
 70
     1
  0
VPORT
  5
29
330
8
100
AcDbSymbolTableRecord
100
AcDbViewportTableRecord
  2
*Active
 70
     0
 10
0.0
 20
0.0
 11
1.0
 21
1.0
 12
420.5
 22
297.0
 13
0.0
 23
0.0
 14
10.0
 24
10.0
 15
10.0
 25
10.0
 16
0.0
 26
0.0
 36
1.0
 17
0.0
 27
0.0
 37
0.0
 40
594.0
 41
1.4158249158
 42
50.0
 43
0.0
 44
0.0
 50
0.0
 51
0.0
 71
     0
 72
  2000
 73
     1
 74
     3
 75
     0
 76
     0
 77
     0
 78
     0
281
     0
 65
     1
110
0.0
120
0.0
130
0.0
111
1.0
121
0.0
131
0.0
112
0.0
122
1.0
132
0.0
 79
     0
146
0.0
  0
ENDTAB
  0
TABLE
  2
LTYPE
  5
5
330
0
100
AcDbSymbolTable
 70
     6
  0
LTYPE
  5
14
330
5
100
AcDbSymbolTableRecord
100
AcDbLinetypeTableRecord
  2
ByBlock
 70
     0
  3

 72
    65
 73
     0
 40
0.0
  0
LTYPE
  5
15
330
5
100
AcDbSymbolTableRecord
100
AcDbLinetypeTableRecord
  2
ByLayer
 70
     0
  3

 72
    65
 73
     0
 40
0.0
  0
LTYPE
  5
16
330
5
100
AcDbSymbolTableRecord
100
AcDbLinetypeTableRecord
  2
Continuous
 70
     0
  3
Solid line
 72
    65
 73
     0
 40
0.0
  0
LTYPE
  5
3B
330
5
100
AcDbSymbolTableRecord
100
AcDbLinetypeTableRecord
  2
HIDDEN
 70
     0
  3
Hidden __ __ __ __ __ __ __ __ __ __ __ __ __ __
 72
    65
 73
     2
 40
1.905
 49
1.27
 74
     0
 49
-0.635
 74
     0
  0
LTYPE
  5
3C
330
5
100
AcDbSymbolTableRecord
100
AcDbLinetypeTableRecord
  2
PHANTOM
 70
     0
  3
Phantom ______  __  __  ______  __  __  ______
 72
    65
 73
     6
 40
12.7
 49
6.35
 74
     0
 49
-1.27
 74
     0
 49
1.27
 74
     0
 49
-1.27
 74
     0
 49
1.27
 74
     0
 49
-1.27
 74
     0
  0
LTYPE
  5
3D
330
5
100
AcDbSymbolTableRecord
100
AcDbLinetypeTableRecord
  2
CENTER
 70
     0
  3
Center ____ _ ____ _ ____ _ ____ _ ____ _ ____
 72
    65
 73
     4
 40
10.16
 49
6.35
 74
     0
 49
-1.27
 74
     0
 49
1.27
 74
     0
 49
-1.27
 74
     0
  0
LTYPE
  5
3E
330
5
100
AcDbSymbolTableRecord
100
AcDbLinetypeTableRecord
  2
CENTERX2
 70
     0
  3
Center (2x) ________  __  ________  __  _____
 72
    65
 73
     4
 40
20.32
 49
12.7
 74
     0
 49
-2.54
 74
     0
 49
2.54
 74
     0
 49
-2.54
 74
     0
  0
LTYPE
  5
3F
330
5
100
AcDbSymbolTableRecord
100
AcDbLinetypeTableRecord
  2
DOT2
 70
     0
  3
Dot (.5x) ........................................
 72
    65
 73
     2
 40
0.635
 49
0.0
 74
     0
 49
-0.635
 74
     0
  0
ENDTAB
  0
TABLE
  2
LAYER
  5
2
330
0
100
AcDbSymbolTable
 70
     1
  0
LAYER
  5
10
330
2
100
AcDbSymbolTableRecord
100
AcDbLayerTableRecord
  2
0
 70
     0
 62
     7
  6
Continuous
370
    -3
390
F
  0
ENDTAB
  0
TABLE
  2
STYLE
  5
3
330
0
100
AcDbSymbolTable
 70
     1
  0
STYLE
  5
11
330
3
100
AcDbSymbolTableRecord
100
AcDbTextStyleTableRecord
  2
Standard
 70
     0
 40
0.0
 41
1.0
 50
0.0
 71
     0
 42
2.5
  3
txt
  4

  0
ENDTAB
  0
TABLE
  2
VIEW
  5
6
330
0
100
AcDbSymbolTable
 70
     0
  0
ENDTAB
  0
TABLE
  2
UCS
  5
7
330
0
100
AcDbSymbolTable
 70
     0
  0
ENDTAB
  0
TABLE
  2
APPID
  5
9
330
0
100
AcDbSymbolTable
 70
     1
  0
APPID
  5
12
330
9
100
AcDbSymbolTableRecord
100
AcDbRegAppTableRecord
  2
ACAD
 70
     0
  0
ENDTAB
  0
TABLE
  2
DIMSTYLE
  5
A
330
0
100
AcDbSymbolTable
 70
     1
100
AcDbDimStyleTable
  0
DIMSTYLE
105
27
330
A
100
AcDbSymbolTableRecord
100
AcDbDimStyleTableRecord
  2
ISO-25
 70
     0
 41
2.5
 42
0.625
 43
3.75
 44
1.25
 73
     0
 74
     0
 77
     1
 78
     8
140
2.5
141
2.5
143
0.0393700787
147
0.625
171
     3
172
     1
271
     2
272
     2
274
     3
278
    44
283
     0
284
     8
340
11
  0
ENDTAB
  0
TABLE
  2
BLOCK_RECORD
  5
1
330
0
100
AcDbSymbolTable
 70
     1
  0
BLOCK_RECORD
  5
1F
330
1
100
AcDbSymbolTableRecord
100
AcDbBlockTableRecord
  2
*Model_Space
340
22
  0
BLOCK_RECORD
  5
1B
330
1
100
AcDbSymbolTableRecord
100
AcDbBlockTableRecord
  2
*Paper_Space
340
1E
  0
BLOCK_RECORD
  5
23
330
1
100
AcDbSymbolTableRecord
100
AcDbBlockTableRecord
  2
*Paper_Space0
340
26
  0
ENDTAB
  0
ENDSEC
  0
SECTION
  2
BLOCKS
  0
BLOCK
  5
20
330
1F
100
AcDbEntity
  8
0
100
AcDbBlockBegin
  2
*Model_Space
 70
     0
 10
0.0
 20
0.0
 30
0.0
  3
*Model_Space
  1

  0
ENDBLK
  5
21
330
1F
100
AcDbEntity
  8
0
100
AcDbBlockEnd
  0
BLOCK
  5
1C
330
1B
100
AcDbEntity
 67
     1
  8
0
100
AcDbBlockBegin
  2
*Paper_Space
 70
     0
 10
0.0
 20
0.0
 30
0.0
  3
*Paper_Space
  1

  0
ENDBLK
  5
1D
330
1B
100
AcDbEntity
 67
     1
  8
0
100
AcDbBlockEnd
  0
BLOCK
  5
24
330
23
100
AcDbEntity
  8
0
100
AcDbBlockBegin
  2
*Paper_Space0
 70
     0
 10
0.0
 20
0.0
 30
0.0
  3
*Paper_Space0
  1

  0
ENDBLK
  5
25
330
23
100
AcDbEntity
  8
0
100
AcDbBlockEnd
  0
ENDSEC
  0
SECTION
  2
ENTITIES
  0
LINE
  5
40
330
1F
100
AcDbEntity
  8
0
  6
Continuous
 62
     7
370
    15
100
AcDbLine
 10
1309.2529249219
 20
1455.5989096973
 30
0.0
 11
1260.8653974561
 21
1455.5989096973
 31
0.0
  0
LINE
  5
41
330
1F
100
AcDbEntity
  8
0
  6
Continuous
 62
     7
370
    15
100
AcDbLine
 10
1229.6404314069
 20
1455.5989096973
 30
0.0
 11
22.2529244451
 21
1455.5989096973
 31
0.0
  0
LINE
  5
42
330
1F
100
AcDbEntity
  8
0
  6
Continuous
 62
     7
370
    15
100
AcDbLine
 10
-7.7470469447
 20
1455.5989096973
 30
0.0
 11
-677.7470710846
 21
1455.5989096973
 31
0.0
  0
LINE
  5
43
330
1F
100
AcDbEntity
  8
0
  6
Continuous
 62
     7
370
    15
100
AcDbLine
 10
-707.7470722767
 20
1455.5989096973
 30
0.0
 11
-711.1345756026
 21
1455.5989096973
 31
0.0
  0
LINE
  5
44
330
1F
100
AcDbEntity
  8
0
  6
Continuous
 62
     7
370
    15
100
AcDbLine
 10
-742.3595677288
 20
1455.5989096973
 30
0.0
 11
-790.7470730757
 21
1455.5989096973
 31
0.0
  0
LINE
  5
45
330
1F
100
AcDbEntity
  8
0
  6
Continuous
 62
     7
370
    15
100
AcDbLine
 10
-790.7470730757
 20
1430.5989074621
 30
0.0
 11
-742.3595677288
 21
1430.5989074621
 31
0.0
  0
LINE
  5
46
330
1F
100
AcDbEntity
  8
0
  6
Continuous
 62
     7
370
    15
100
AcDbLine
 10
-711.1345756026
 20
1430.5989074621
 30
0.0
 11
-707.7470722767
 21
1430.5989074621
 31
0.0
  0
LINE
  5
47
330
1F
100
AcDbEntity
  8
0
  6
Continuous
 62
     7
370
    15
100
AcDbLine
 10
-677.7470710846
 20
1430.5989074621
 30
0.0
 11
-7.7470469447
 21
1430.5989074621
 31
0.0
  0
LINE
  5
48
330
1F
100
AcDbEntity
  8
0
  6
Continuous
 62
     7
370
    15
100
AcDbLine
 10
22.2529244451
 20
1430.5989074621
 30
0.0
 11
1229.6404314069
 21
1430.5989074621
 31
0.0
  0
LINE
  5
49
330
1F
100
AcDbEntity
  8
0
  6
Continuous
 62
     7
370
    15
100
AcDbLine
 10
1260.8653974561
 20
1430.5989074621
 30
0.0
 11
1309.2529249219
 21
1430.5989074621
 31
0.0
  0
LINE
  5
4A
330
1F
100
AcDbEntity
  8
0
  6
Continuous
 62
     7
370
    15
100
AcDbLine
 10
35.8227562932
 20
-647.3010440257
 30
0.0
 11
35.7528996496
 21
-651.3009925273
 31
0.0
  0
LINE
  5
4B
330
1F
100
AcDbEntity
  8
0
  6
Continuous
 62
     7
370
    15
100
AcDbLine
 10
63.7529563932
 20
-651.3009925273
 30
0.0
 11
63.6830997495
 21
-647.3010440257
 31
0.0
  0
LINE
  5
4C
330
1F
100
AcDbEntity
  8
0
  6
Continuous
 62
     7
370
    15
100
AcDbLine
 10
-792.5470731758
 20
1430.5989074621
 30
0.0
 11
-790.9470732017
 21
1430.5989074621
 31
0.0
  0
LINE
  5
4D
330
1F
100
AcDbEntity
  8
0
  6
Continuous
 62
     7
370
    15
100
AcDbLine
 10
-790.9470732017
 20
1455.5989096973
 30
0.0
 11
-792.5470731758
 21
1455.5989096973
 31
0.0
  0
LINE
  5
4E
330
1F
100
AcDbEntity
  8
0
  6
Continuous
 62
     7
370
    15
100
AcDbLine
 10
-792.5470731758
 20
1455.5989096973
 30
0.0
 11
-792.7470731707
 21
1455.398910037
 31
0.0
  0
LINE
  5
4F
330
1F
100
AcDbEntity
  8
0
  6
Continuous
 62
     7
370
    15
100
AcDbLine
 10
-792.7470731707
 20
1430.798908985
 30
0.0
 11
-792.5470731758
 21
1430.5989074621
 31
0.0
  0
LINE
  5
50
330
1F
100
AcDbEntity
  8
0
  6
Continuous
 62
     7
370
    15
100
AcDbLine
 10
-790.9470732017
 20
1430.5989074621
 30
0.0
 11
-790.7470730757
 21
1430.798908985
 31
0.0
  0
LINE
  5
51
330
1F
100
AcDbEntity
  8
0
  6
Continuous
 62
     7
370
    15
100
AcDbLine
 10
-790.7470730757
 20
1455.398910037
 30
0.0
 11
-790.9470732017
 21
1455.5989096973
 31
0.0
  0
LINE
  5
52
330
1F
100
AcDbEntity
  8
0
  6
Continuous
 62
     7
370
    15
100
AcDbLine
 10
1311.0529851941
 20
1430.5989074621
 30
0.0
 11
1311.253018382
 21
1430.798908985
 31
0.0
  0
LINE
  5
53
330
1F
100
AcDbEntity
  8
0
  6
Continuous
 62
     7
370
    15
100
AcDbLine
 10
1311.253018382
 20
1455.398910037
 30
0.0
 11
1311.0529851941
 21
1455.5989096973
 31
0.0
  0
LINE
  5
54
330
1F
100
AcDbEntity
  8
0
  6
Continuous
 62
     7
370
    15
100
AcDbLine
 10
1309.4529581098
 20
1455.5989096973
 30
0.0
 11
1309.2529249219
 21
1455.398910037
 31
0.0
  0
LINE
  5
55
330
1F
100
AcDbEntity
  8
0
  6
Continuous
 62
     7
370
    15
100
AcDbLine
 10
1309.2529249219
 20
1430.798908985
 30
0.0
 11
1309.4529581098
 21
1430.5989074621
 31
0.0
  0
LINE
  5
56
330
1F
100
AcDbEntity
  8
0
  6
Continuous
 62
     7
370
    15
100
AcDbLine
 10
1311.0529851941
 20
1455.5989096973
 30
0.0
 11
1309.4529581098
 21
1455.5989096973
 31
0.0
  0
LINE
  5
57
330
1F
100
AcDbEntity
  8
0
  6
Continuous
 62
     7
370
    15
100
AcDbLine
 10
1309.4529581098
 20
1430.5989074621
 30
0.0
 11
1311.0529851941
 21
1430.5989074621
 31
0.0
  0
LINE
  5
58
330
1F
100
AcDbEntity
  8
0
  6
Continuous
 62
     7
370
    15
100
AcDbLine
 10
1309.2529249219
 20
1443.098906717
 30
0.0
 11
1309.2529249219
 21
1455.5989096973
 31
0.0
  0
LINE
  5
59
330
1F
100
AcDbEntity
  8
0
  6
Continuous
 62
     7
370
    15
100
AcDbLine
 10
1309.2529249219
 20
1430.5989074621
 30
0.0
 11
1309.2529249219
 21
1443.098906717
 31
0.0
  0
LINE
  5
5A
330
1F
100
AcDbEntity
  8
0
  6
Continuous
 62
     7
370
    15
100
AcDbLine
 10
-790.7470730757
 20
1443.098906717
 30
0.0
 11
-790.7470730757
 21
1455.5989096973
 31
0.0
  0
LINE
  5
5B
330
1F
100
AcDbEntity
  8
0
  6
Continuous
 62
     7
370
    15
100
AcDbLine
 10
-790.7470730757
 20
1430.5989074621
 30
0.0
 11
-790.7470730757
 21
1443.098906717
 31
0.0
  0
SPLINE
  5
5C
330
1F
100
AcDbEntity
  8
0
  6
Continuous
 62
     7
370
    15
100
AcDbSpline
210
0.0
220
0.0
230
1.0
 70
    11
 71
     3
 72
    28
 73
    24
 74
     0
 42
0.00000001
 43
0.00000001
 40
0.0
 40
0.0
 40
0.0
 40
0.0
 40
0.0475550651793
 40
0.0949665053545452
 40
0.1460706140291362
 40
0.2034569236910605
 40
0.2467858442637893
 40
0.2901870203594734
 40
0.3330337376447206
 40
0.3834842954549618
 40
0.4410926699593697
 40
0.4950490654356425
 40
0.5415909087814643
 40
0.5869405742133221
 40
0.6370256227697187
 40
0.6937095903039538
 40
0.7381340714599427
 40
0.7826953350300114
 40
0.8249694423002862
 40
0.8737308867534317
 40
0.9306923118806448
 40
0.9860187129591071
 40
0.9999999999999999
 40
0.9999999999999999
 40
0.9999999999999999
 40
0.9999999999999999
 10
1186.802930834701
 20
1443.098906717019
 30
0.0
 10
1186.732973372751
 20
1442.326109048468
 30
0.0
 10
1186.593269733195
 20
1440.782847701821
 30
0.0
 10
1185.520324674655
 20
1438.697122455072
 30
0.0
 10
1183.865886499027
 20
1436.945909642101
 30
0.0
 10
1181.73786981661
 20
1435.832264611291
 30
0.0
 10
1179.412397714493
 20
1435.449825488203
 30
0.0
 10
1177.297635477913
 20
1435.707666828748
 30
0.0
 10
1175.302502844361
 20
1436.543565797834
 30
0.0
 10
1173.486382670442
 20
1438.014737293751
 30
0.0
 10
1172.116014626062
 20
1440.18449039166
 30
0.0
 10
1171.575715573983
 20
1442.734170449486
 30
0.0
 10
1171.864560122094
 20
1445.118130429711
 30
0.0
 10
1172.779954861125
 20
1447.195814417368
 30
0.0
 10
1174.320641011678
 20
1448.990511639034
 30
0.0
 10
1176.354959611109
 20
1450.209229550751
 30
0.0
 10
1178.663704924648
 20
1450.732036151253
 30
0.0
 10
1180.827291347496
 20
1450.583230824016
 30
0.0
 10
1182.857406462641
 20
1449.846163517632
 30
0.0
 10
1184.716572379475
 20
1448.498474160318
 30
0.0
 10
1186.192295576206
 20
1446.446835392767
 30
0.0
 10
1186.7652055391
 20
1444.446097522713
 30
0.0
 10
1186.796598085553
 20
1443.325052630293
 30
0.0
 10
1186.802930834701
 20
1443.098906717019
 30
0.0
  0
SPLINE
  5
5D
330
1F
100
AcDbEntity
  8
0
  6
Continuous
 62
     7
370
    15
100
AcDbSpline
210
0.0
220
0.0
230
1.0
 70
    11
 71
     3
 72
    28
 73
    24
 74
     0
 42
0.00000001
 43
0.00000001
 40
0.0
 40
0.0
 40
0.0
 40
0.0
 40
0.0475551956307678
 40
0.0949660568843465
 40
0.1460693020920801
 40
0.2034576433208029
 40
0.2467853084892723
 40
0.2901852186558085
 40
0.3330340862985587
 40
0.3834827716119272
 40
0.4410923280180563
 40
0.4950486602528113
 40
0.5415905934524512
 40
0.5869406838348162
 40
0.6370241542477799
 40
0.6937080553435492
 40
0.7381336693967969
 40
0.7826948807372475
 40
0.8249700657101613
 40
0.8737314530107168
 40
0.9306921285803977
 40
0.986018784544762
 40
0.9999999999999999
 40
0.9999999999999999
 40
0.9999999999999999
 40
0.9999999999999999
 10
-40.19706725795069
 20
1443.098906717019
 30
0.0
 10
-40.26705371671335
 20
1442.326111204023
 30
0.0
 10
-40.40681421892189
 20
1440.782865683241
 30
0.0
 10
-41.47966137788872
 20
1438.697129696341
 30
0.0
 10
-43.1340693232668
 20
1436.945856645476
 30
0.0
 10
-45.2621474504552
 20
1435.832301924322
 30
0.0
 10
-47.58760142099339
 20
1435.449811866804
 30
0.0
 10
-49.7023418065714
 20
1435.707704431358
 30
0.0
 10
-51.69753375142627
 20
1436.543496652109
 30
0.0
 10
-53.51353352642352
 20
1438.014816458429
 30
0.0
 10
-54.88406892066499
 20
1440.184447493936
 30
0.0
 10
-55.42435216773178
 20
1442.734177159659
 30
0.0
 10
-55.13544305208751
 20
1445.118143923014
 30
0.0
 10
-54.21996061376622
 20
1447.195763095061
 30
0.0
 10
-52.67943411759845
 20
1448.990550215641
 30
0.0
 10
-50.64507527420403
 20
1450.209236389974
 30
0.0
 10
-48.33631209577172
 20
1450.732034855584
 30
0.0
 10
-46.17269085194842
 20
1450.583222989626
 30
0.0
 10
-44.14254864455469
 20
1449.846177219298
 30
0.0
 10
-42.28334965225811
 20
1448.498489126413
 30
0.0
 10
-40.80776468845082
 20
1446.446804003074
 30
0.0
 10
-40.23465669680337
 20
1444.446108276569
 30
0.0
 10
-40.20337716076228
 20
1443.32505297426
 30
0.0
 10
-40.19706725795069
 20
1443.098906717019
 30
0.0
  0
SPLINE
  5
5E
330
1F
100
AcDbEntity
  8
0
  6
Continuous
 62
     7
370
    15
100
AcDbSpline
210
0.0
220
0.0
230
1.0
 70
    11
 71
     3
 72
    28
 73
    24
 74
     0
 42
0.00000001
 43
0.00000001
 40
0.0
 40
0.0
 40
0.0
 40
0.0
 40
0.0475551080025482
 40
0.0949663672213787
 40
0.1460694174184811
 40
0.203457240539264
 40
0.2467855130015363
 40
0.2901854281607572
 40
0.3330337505857465
 40
0.3834831217080682
 40
0.4410923723783117
 40
0.4950486798373283
 40
0.5415905100844646
 40
0.5869407849802347
 40
0.6370246410076884
 40
0.6937085486243202
 40
0.7381338715463547
 40
0.7826953940275508
 40
0.8249694566121181
 40
0.8737310862609505
 40
0.9306922804770736
 40
0.9860187829363762
 40
1.0
 40
1.0
 40
1.0
 40
1.0
 10
-653.197072741578
 20
1443.098906717019
 30
0.0
 10
-653.2670427194128
 20
1442.3261089705
 30
0.0
 10
-653.406771023871
 20
1440.7828511026
 30
0.0
 10
-654.479695240597
 20
1438.69714533727
 30
0.0
 10
-656.1340649941851
 20
1436.945859333938
 30
0.0
 10
-658.2621396552524
 20
1435.832291696289
 30
0.0
 10
-660.5875965575981
 20
1435.449815454877
 30
0.0
 10
-662.7023425715281
 20
1435.707696311131
 30
0.0
 10
-664.69751616311
 20
1436.543517557662
 30
0.0
 10
-666.5135583645762
 20
1438.014791004498
 30
0.0
 10
-667.8840599406981
 20
1440.184458774138
 30
0.0
 10
-668.4243143904112
 20
1442.734172175238
 30
0.0
 10
-668.1354906181655
 20
1445.118152237762
 30
0.0
 10
-667.2199585146085
 20
1447.195766610471
 30
0.0
 10
-665.6794107957328
 20
1448.990542220626
 30
0.0
 10
-663.6450552008324
 20
1450.209235186993
 30
0.0
 10
-661.336294288961
 20
1450.732033785477
 30
0.0
 10
-659.172685699451
 20
1450.583234065086
 30
0.0
 10
-657.142568568167
 20
1449.846159075288
 30
0.0
 10
-655.283375424677
 20
1448.498484620156
 30
0.0
 10
-653.807721900832
 20
1446.446822978654
 30
0.0
 10
-653.2346645350218
 20
1444.446104897639
 30
0.0
 10
-653.2033830517523
 20
1443.325052841137
 30
0.0
 10
-653.197072741578
 20
1443.098906717019
 30
0.0
  0
SPLINE
  5
5F
330
1F
100
AcDbEntity
  8
0
  6
Continuous
 62
     7
370
    15
100
AcDbSpline
210
0.0
220
0.0
230
1.0
 70
    11
 71
     3
 72
    28
 73
    24
 74
     0
 42
0.00000001
 43
0.00000001
 40
0.0
 40
0.0
 40
0.0
 40
0.0
 40
0.0475549951377808
 40
0.0949663654830451
 40
0.1460687917693489
 40
0.2034571157376354
 40
0.2467859724933257
 40
0.2901846545485246
 40
0.3330335093038111
 40
0.3834821794439526
 40
0.4410917185231114
 40
0.49504803452966
 40
0.5415898093262874
 40
0.5869403642011923
 40
0.6370238195507733
 40
0.6937077035979774
 40
0.7381321193233304
 40
0.7826957653764232
 40
0.8249698103832422
 40
0.8737311830180517
 40
0.9306925242495804
 40
0.9860188438405048
 40
1.0
 40
1.0
 40
1.0
 40
1.0
 10
573.8028955487509
 20
1443.098906717019
 30
0.0
 10
573.7329399491397
 20
1442.326107464648
 30
0.0
 10
573.5932400286358
 20
1440.782842955145
 30
0.0
 10
572.5202782252835
 20
1438.697164936339
 30
0.0
 10
570.865964671632
 20
1436.945835496559
 30
0.0
 10
568.737853922768
 20
1435.83229540461
 30
0.0
 10
566.41240016066
 20
1435.449812744305
 30
0.0
 10
564.2976629229927
 20
1435.707711589957
 30
0.0
 10
562.3024882063849
 20
1436.54349681384
 30
0.0
 10
560.4864911343809
 20
1438.014816041365
 30
0.0
 10
559.1159440508256
 20
1440.184449135446
 30
0.0
 10
558.5757014625992
 20
1442.734169510179
 30
0.0
 10
558.8644829813628
 20
1445.118163692413
 30
0.0
 10
559.7800841778732
 20
1447.195747875298
 30
0.0
 10
561.3205791577974
 20
1448.990553508919
 30
0.0
 10
563.3549345612724
 20
1450.209225325755
 30
0.0
 10
565.6637056325324
 20
1450.732040049218
 30
0.0
 10
567.8273394843286
 20
1450.583243223174
 30
0.0
 10
569.85748749531
 20
1449.846163677237
 30
0.0
 10
571.7166697498723
 20
1448.498474667153
 30
0.0
 10
573.192320912881
 20
1446.446832785769
 30
0.0
 10
573.7654331094471
 20
1444.446105752246
 30
0.0
 10
573.7966069568748
 20
1443.325052826728
 30
0.0
 10
573.8028955487509
 20
1443.098906717019
 30
0.0
  0
LINE
  5
60
330
1F
100
AcDbEntity
  8
0
  6
Continuous
 62
     7
370
    15
100
AcDbLine
 10
22.7529478101
 20
-651.3009925273
 30
0.0
 11
22.7529478101
 21
-655.3011794475
 31
0.0
  0
LINE
  5
61
330
1F
100
AcDbEntity
  8
0
  6
Continuous
 62
     7
370
    15
100
AcDbLine
 10
22.7529478101
 20
-651.3009925273
 30
0.0
 11
87.2529220609
 21
-651.3009925273
 31
0.0
  0
LINE
  5
62
330
1F
100
AcDbEntity
  8
0
  6
Continuous
 62
     7
370
    15
100
AcDbLine
 10
87.2529220609
 20
-651.3009925273
 30
0.0
 11
87.2529220609
 21
-655.3011794475
 31
0.0
  0
LINE
  5
63
330
1F
100
AcDbEntity
  8
0
  6
Continuous
 62
     7
370
    15
100
AcDbLine
 10
22.7529478101
 20
-655.3011794475
 30
0.0
 11
87.2529220609
 21
-655.3011794475
 31
0.0
  0
LINE
  5
64
330
1F
100
AcDbEntity
  8
0
  6
Continuous
 62
     7
370
    15
100
AcDbLine
 10
-728.9052608581
 20
1442.2769921932
 30
0.0
 11
-727.1143722506
 21
1440.8189023945
 31
0.0
  0
LINE
  5
65
330
1F
100
AcDbEntity
  8
0
  6
Continuous
 62
     7
370
    15
100
AcDbLine
 10
-724.9561774703
 20
1441.6408169183
 30
0.0
 11
-727.1143722506
 21
1440.8189023945
 31
0.0
  0
LINE
  5
66
330
1F
100
AcDbEntity
  8
0
  6
Continuous
 62
     7
370
    15
100
AcDbLine
 10
-724.588878748
 20
1443.9208249661
 30
0.0
 11
-724.9561774703
 21
1441.6408169183
 31
0.0
  0
LINE
  5
67
330
1F
100
AcDbEntity
  8
0
  6
Continuous
 62
     7
370
    15
100
AcDbLine
 10
-724.588878748
 20
1443.9208249661
 30
0.0
 11
-726.3797748061
 21
1445.3789147648
 31
0.0
  0
LINE
  5
68
330
1F
100
AcDbEntity
  8
0
  6
Continuous
 62
     7
370
    15
100
AcDbLine
 10
-728.5379695864
 20
1444.557000241
 30
0.0
 11
-728.9052608581
 21
1442.2769921932
 31
0.0
  0
LINE
  5
69
330
1F
100
AcDbEntity
  8
0
  6
Continuous
 62
     7
370
    15
100
AcDbLine
 10
-728.5379695864
 20
1444.557000241
 30
0.0
 11
-726.3797748061
 21
1445.3789147648
 31
0.0
  0
LINE
  5
6A
330
1F
100
AcDbEntity
  8
0
  6
Continuous
 62
     7
370
    15
100
AcDbLine
 10
1247.0437955884
 20
1441.6408169183
 30
0.0
 11
1244.8856306104
 21
1440.8189023945
 31
0.0
  0
LINE
  5
6B
330
1F
100
AcDbEntity
  8
0
  6
Continuous
 62
     7
370
    15
100
AcDbLine
 10
1247.4111986188
 20
1443.9208249661
 30
0.0
 11
1247.0437955884
 21
1441.6408169183
 31
0.0
  0
LINE
  5
6C
330
1F
100
AcDbEntity
  8
0
  6
Continuous
 62
     7
370
    15
100
AcDbLine
 10
1243.4620332746
 20
1444.557000241
 30
0.0
 11
1245.6201982526
 21
1445.3789147648
 31
0.0
  0
LINE
  5
6D
330
1F
100
AcDbEntity
  8
0
  6
Continuous
 62
     7
370
    15
100
AcDbLine
 10
1243.0946302442
 20
1442.2769921932
 30
0.0
 11
1244.8856306104
 21
1440.8189023945
 31
0.0
  0
LINE
  5
6E
330
1F
100
AcDbEntity
  8
0
  6
Continuous
 62
     7
370
    15
100
AcDbLine
 10
1243.4620332746
 20
1444.557000241
 30
0.0
 11
1243.0946302442
 21
1442.2769921932
 31
0.0
  0
LINE
  5
6F
330
1F
100
AcDbEntity
  8
0
  6
Continuous
 62
     7
370
    15
100
AcDbLine
 10
1247.4111986188
 20
1443.9208249661
 30
0.0
 11
1245.6201982526
 21
1445.3789147648
 31
0.0
  0
ARC
  5
70
330
1F
100
AcDbEntity
  8
0
  6
Continuous
 62
     7
370
    15
100
AcDbCircle
 10
-726.7470731707
 20
1443.0989082906
 30
0.0
 40
20.00000000000004
100
AcDbArc
 50
18.1948723388
 51
341.8051276612
  0
CIRCLE
  5
71
330
1F
100
AcDbEntity
  8
0
  6
Continuous
 62
     7
370
    15
100
AcDbCircle
 10
1245.2529268293
 20
1443.0989082906
 30
0.0
 40
20.00000000000004
  0
LINE
  5
72
330
1F
100
AcDbEntity
  8
0
  6
Continuous
 62
     7
370
    15
100
AcDbLine
 10
-792.5470731758
 20
1455.5989096973
 30
0.0
 11
-792.5470731758
 21
1430.5989074621
 31
0.0
  0
LINE
  5
73
330
1F
100
AcDbEntity
  8
0
  6
Continuous
 62
     7
370
    15
100
AcDbLine
 10
-790.9470732017
 20
1430.5989074621
 30
0.0
 11
-790.9470732017
 21
1455.5989096973
 31
0.0
  0
LINE
  5
74
330
1F
100
AcDbEntity
  8
0
  6
Continuous
 62
     7
370
    15
100
AcDbLine
 10
-792.7470731707
 20
1430.798908985
 30
0.0
 11
-792.7470731707
 21
1455.398910037
 31
0.0
  0
LINE
  5
75
330
1F
100
AcDbEntity
  8
0
  6
Continuous
 62
     7
370
    15
100
AcDbLine
 10
1311.0529851941
 20
1442.9962786946
 30
0.0
 11
1311.0529851941
 21
1455.5989096973
 31
0.0
  0
LINE
  5
76
330
1F
100
AcDbEntity
  8
0
  6
Continuous
 62
     7
370
    15
100
AcDbLine
 10
1311.0529851941
 20
1430.5989074621
 30
0.0
 11
1311.0529851941
 21
1442.9962786946
 31
0.0
  0
LINE
  5
77
330
1F
100
AcDbEntity
  8
0
  6
Continuous
 62
     7
370
    15
100
AcDbLine
 10
1311.253018382
 20
1442.9979215476
 30
0.0
 11
1311.253018382
 21
1430.798908985
 31
0.0
  0
LINE
  5
78
330
1F
100
AcDbEntity
  8
0
  6
Continuous
 62
     7
370
    15
100
AcDbLine
 10
1311.253018382
 20
1455.398910037
 30
0.0
 11
1311.253018382
 21
1442.9979215476
 31
0.0
  0
LINE
  5
79
330
1F
100
AcDbEntity
  8
0
  6
Continuous
 62
     7
370
    15
100
AcDbLine
 10
1309.4529581098
 20
1442.9962786946
 30
0.0
 11
1309.4529581098
 21
1430.5989074621
 31
0.0
  0
LINE
  5
7A
330
1F
100
AcDbEntity
  8
0
  6
Continuous
 62
     7
370
    15
100
AcDbLine
 10
1309.4529581098
 20
1455.5989096973
 30
0.0
 11
1309.4529581098
 21
1442.9962786946
 31
0.0
  0
LINE
  5
7B
330
1F
100
AcDbEntity
  8
0
  6
Continuous
 62
     7
370
    15
100
AcDbLine
 10
-690.3053227039
 20
1349.2603118631
 30
0.0
 11
-690.1739838691
 21
1346.3649901661
 31
0.0
  0
LINE
  5
7C
330
1F
100
AcDbEntity
  8
0
  6
Continuous
 62
     7
370
    15
100
AcDbLine
 10
-695.3201669427
 20
1349.0328232858
 30
0.0
 11
-692.8784105154
 21
1350.5942302856
 31
0.0
  0
LINE
  5
7D
330
1F
100
AcDbEntity
  8
0
  6
Continuous
 62
     7
370
    15
100
AcDbLine
 10
-695.1888281079
 20
1346.1375053141
 30
0.0
 11
-695.3201669427
 21
1349.0328232858
 31
0.0
  0
LINE
  5
7E
330
1F
100
AcDbEntity
  8
0
  6
Continuous
 62
     7
370
    15
100
AcDbLine
 10
-692.6157328459
 20
1344.8035868916
 30
0.0
 11
-695.1888281079
 21
1346.1375053141
 31
0.0
  0
LINE
  5
7F
330
1F
100
AcDbEntity
  8
0
  6
Continuous
 62
     7
370
    15
100
AcDbLine
 10
-690.1739838691
 20
1346.3649901661
 30
0.0
 11
-692.6157328459
 21
1344.8035868916
 31
0.0
  0
LINE
  5
80
330
1F
100
AcDbEntity
  8
0
  6
Continuous
 62
     7
370
    15
100
AcDbLine
 10
-692.8784105154
 20
1350.5942302856
 30
0.0
 11
-690.3053227039
 21
1349.2603118631
 31
0.0
  0
CIRCLE
  5
81
330
1F
100
AcDbEntity
  8
0
  6
Continuous
 62
     7
370
    15
100
AcDbCircle
 10
-692.7470731707
 20
1347.6989082906
 30
0.0
 40
7.784999999999995
  0
ARC
  5
82
330
1F
100
AcDbEntity
  8
0
  6
Continuous
 62
     7
370
    15
100
AcDbCircle
 10
-692.7470731707
 20
1347.6989082906
 30
0.0
 40
2.510000000000034
100
AcDbArc
 50
242.5973255621
 51
302.5973255621
  0
ARC
  5
83
330
1F
100
AcDbEntity
  8
0
  6
Continuous
 62
     7
370
    15
100
AcDbCircle
 10
-692.7470731707
 20
1347.6989082906
 30
0.0
 40
2.510000000000034
100
AcDbArc
 50
122.5973255621
 51
182.5973255621
  0
ARC
  5
84
330
1F
100
AcDbEntity
  8
0
  6
Continuous
 62
     7
370
    15
100
AcDbCircle
 10
-692.7470731707
 20
1347.6989082906
 30
0.0
 40
2.510000000000034
100
AcDbArc
 50
2.5973255621
 51
62.5973255621
  0
ARC
  5
85
330
1F
100
AcDbEntity
  8
0
  6
Continuous
 62
     7
370
    15
100
AcDbCircle
 10
-692.7470731707
 20
1347.6989082906
 30
0.0
 40
2.510000000000034
100
AcDbArc
 50
302.5973255621
 51
2.5973255621
  0
ARC
  5
86
330
1F
100
AcDbEntity
  8
0
  6
Continuous
 62
     7
370
    15
100
AcDbCircle
 10
-692.7470731707
 20
1347.6989082906
 30
0.0
 40
2.510000000000006
100
AcDbArc
 50
62.5973255621
 51
122.5973255621
  0
ARC
  5
87
330
1F
100
AcDbEntity
  8
0
  6
Continuous
 62
     7
370
    15
100
AcDbCircle
 10
-692.7470731707
 20
1347.6989082906
 30
0.0
 40
2.510000000000034
100
AcDbArc
 50
182.5973255621
 51
242.5973255621
  0
LINE
  5
88
330
1F
100
AcDbEntity
  8
0
  6
Continuous
 62
     7
370
    15
100
AcDbLine
 10
-690.3053227039
 20
1294.2603121612
 30
0.0
 11
-690.1739838691
 21
1291.3649941895
 31
0.0
  0
LINE
  5
89
330
1F
100
AcDbEntity
  8
0
  6
Continuous
 62
     7
370
    15
100
AcDbLine
 10
-692.8784105154
 20
1295.5942268583
 30
0.0
 11
-690.3053227039
 21
1294.2603121612
 31
0.0
  0
LINE
  5
8A
330
1F
100
AcDbEntity
  8
0
  6
Continuous
 62
     7
370
    15
100
AcDbLine
 10
-695.3201669427
 20
1294.0328235838
 30
0.0
 11
-692.8784105154
 21
1295.5942268583
 31
0.0
  0
LINE
  5
8B
330
1F
100
AcDbEntity
  8
0
  6
Continuous
 62
     7
370
    15
100
AcDbLine
 10
-695.1888281079
 20
1291.1375056121
 30
0.0
 11
-695.3201669427
 21
1294.0328235838
 31
0.0
  0
LINE
  5
8C
330
1F
100
AcDbEntity
  8
0
  6
Continuous
 62
     7
370
    15
100
AcDbLine
 10
-692.6157328459
 20
1289.8035909149
 30
0.0
 11
-695.1888281079
 21
1291.1375056121
 31
0.0
  0
LINE
  5
8D
330
1F
100
AcDbEntity
  8
0
  6
Continuous
 62
     7
370
    15
100
AcDbLine
 10
-690.1739838691
 20
1291.3649941895
 30
0.0
 11
-692.6157328459
 21
1289.8035909149
 31
0.0
  0
CIRCLE
  5
8E
330
1F
100
AcDbEntity
  8
0
  6
Continuous
 62
     7
370
    15
100
AcDbCircle
 10
-692.7470731707
 20
1292.6989082906
 30
0.0
 40
7.785000000000005
  0
ARC
  5
8F
330
1F
100
AcDbEntity
  8
0
  6
Continuous
 62
     7
370
    15
100
AcDbCircle
 10
-692.7470731707
 20
1292.6989082906
 30
0.0
 40
2.510000000000165
100
AcDbArc
 50
62.5973255621
 51
122.5973255621
  0
ARC
  5
90
330
1F
100
AcDbEntity
  8
0
  6
Continuous
 62
     7
370
    15
100
AcDbCircle
 10
-692.7470731707
 20
1292.6989082906
 30
0.0
 40
2.510000000000023
100
AcDbArc
 50
182.5973255621
 51
242.5973255621
  0
ARC
  5
91
330
1F
100
AcDbEntity
  8
0
  6
Continuous
 62
     7
370
    15
100
AcDbCircle
 10
-692.7470731707
 20
1292.6989082906
 30
0.0
 40
2.509999999999973
100
AcDbArc
 50
242.5973255621
 51
302.5973255621
  0
ARC
  5
92
330
1F
100
AcDbEntity
  8
0
  6
Continuous
 62
     7
370
    15
100
AcDbCircle
 10
-692.7470731707
 20
1292.6989082906
 30
0.0
 40
2.510000000000034
100
AcDbArc
 50
302.5973255621
 51
2.5973255621
  0
ARC
  5
93
330
1F
100
AcDbEntity
  8
0
  6
Continuous
 62
     7
370
    15
100
AcDbCircle
 10
-692.7470731707
 20
1292.6989082906
 30
0.0
 40
2.510000000000165
100
AcDbArc
 50
122.5973255621
 51
182.5973255621
  0
ARC
  5
94
330
1F
100
AcDbEntity
  8
0
  6
Continuous
 62
     7
370
    15
100
AcDbCircle
 10
-692.7470731707
 20
1292.6989082906
 30
0.0
 40
2.510000000000034
100
AcDbArc
 50
2.5973255621
 51
62.5973255621
  0
LINE
  5
95
330
1F
100
AcDbEntity
  8
0
  6
Continuous
 62
     7
370
    15
100
AcDbLine
 10
9.6947026281
 20
1349.2603118631
 30
0.0
 11
9.8260116605
 21
1346.3649901661
 31
0.0
  0
LINE
  5
96
330
1F
100
AcDbEntity
  8
0
  6
Continuous
 62
     7
370
    15
100
AcDbLine
 10
7.1215701131
 20
1350.5942302856
 30
0.0
 11
9.6947026281
 21
1349.2603118631
 31
0.0
  0
LINE
  5
97
330
1F
100
AcDbEntity
  8
0
  6
Continuous
 62
     7
370
    15
100
AcDbLine
 10
4.6798062352
 20
1349.0328232858
 30
0.0
 11
7.1215701131
 21
1350.5942302856
 31
0.0
  0
LINE
  5
98
330
1F
100
AcDbEntity
  8
0
  6
Continuous
 62
     7
370
    15
100
AcDbLine
 10
7.3842477826
 20
1344.8035868916
 30
0.0
 11
4.8111748723
 21
1346.1375053141
 31
0.0
  0
LINE
  5
99
330
1F
100
AcDbEntity
  8
0
  6
Continuous
 62
     7
370
    15
100
AcDbLine
 10
9.8260116605
 20
1346.3649901661
 30
0.0
 11
7.3842477826
 21
1344.8035868916
 31
0.0
  0
CIRCLE
  5
9A
330
1F
100
AcDbEntity
  8
0
  6
Continuous
 62
     7
370
    15
100
AcDbCircle
 10
7.2529268293
 20
1347.6989082906
 30
0.0
 40
7.785000000000013
  0
LINE
  5
9B
330
1F
100
AcDbEntity
  8
0
  6
Continuous
 62
     7
370
    15
100
AcDbLine
 10
4.8111748723
 20
1346.1375053141
 30
0.0
 11
4.6798062352
 21
1349.0328232858
 31
0.0
  0
ARC
  5
9C
330
1F
100
AcDbEntity
  8
0
  6
Continuous
 62
     7
370
    15
100
AcDbCircle
 10
7.2529268293
 20
1347.6989082906
 30
0.0
 40
2.510000000000035
100
AcDbArc
 50
2.5973255621
 51
62.5973255621
  0
ARC
  5
9D
330
1F
100
AcDbEntity
  8
0
  6
Continuous
 62
     7
370
    15
100
AcDbCircle
 10
7.2529268293
 20
1347.6989082906
 30
0.0
 40
2.510000000000025
100
AcDbArc
 50
182.5973255621
 51
242.5973255621
  0
ARC
  5
9E
330
1F
100
AcDbEntity
  8
0
  6
Continuous
 62
     7
370
    15
100
AcDbCircle
 10
7.2529268293
 20
1347.6989082906
 30
0.0
 40
2.510000000000025
100
AcDbArc
 50
122.5973255621
 51
182.5973255621
  0
ARC
  5
9F
330
1F
100
AcDbEntity
  8
0
  6
Continuous
 62
     7
370
    15
100
AcDbCircle
 10
7.2529268293
 20
1347.6989082906
 30
0.0
 40
2.510000000000035
100
AcDbArc
 50
302.5973255621
 51
2.5973255621
  0
ARC
  5
A0
330
1F
100
AcDbEntity
  8
0
  6
Continuous
 62
     7
370
    15
100
AcDbCircle
 10
7.2529268293
 20
1347.6989082906
 30
0.0
 40
2.510000000000002
100
AcDbArc
 50
242.5973255621
 51
302.5973255621
  0
ARC
  5
A1
330
1F
100
AcDbEntity
  8
0
  6
Continuous
 62
     7
370
    15
100
AcDbCircle
 10
7.2529268293
 20
1347.6989082906
 30
0.0
 40
2.510000000000002
100
AcDbArc
 50
62.5973255621
 51
122.5973255621
  0
LINE
  5
A2
330
1F
100
AcDbEntity
  8
0
  6
Continuous
 62
     7
370
    15
100
AcDbLine
 10
9.6947026281
 20
1294.2603121612
 30
0.0
 11
9.8260116605
 21
1291.3649941895
 31
0.0
  0
LINE
  5
A3
330
1F
100
AcDbEntity
  8
0
  6
Continuous
 62
     7
370
    15
100
AcDbLine
 10
4.6798062352
 20
1294.0328235838
 30
0.0
 11
7.1215701131
 21
1295.5942268583
 31
0.0
  0
LINE
  5
A4
330
1F
100
AcDbEntity
  8
0
  6
Continuous
 62
     7
370
    15
100
AcDbLine
 10
4.8111748723
 20
1291.1375056121
 30
0.0
 11
4.6798062352
 21
1294.0328235838
 31
0.0
  0
LINE
  5
A5
330
1F
100
AcDbEntity
  8
0
  6
Continuous
 62
     7
370
    15
100
AcDbLine
 10
9.8260116605
 20
1291.3649941895
 30
0.0
 11
7.3842477826
 21
1289.8035909149
 31
0.0
  0
CIRCLE
  5
A6
330
1F
100
AcDbEntity
  8
0
  6
Continuous
 62
     7
370
    15
100
AcDbCircle
 10
7.2529268293
 20
1292.6989082906
 30
0.0
 40
7.785000000000013
  0
LINE
  5
A7
330
1F
100
AcDbEntity
  8
0
  6
Continuous
 62
     7
370
    15
100
AcDbLine
 10
7.3842477826
 20
1289.8035909149
 30
0.0
 11
4.8111748723
 21
1291.1375056121
 31
0.0
  0
LINE
  5
A8
330
1F
100
AcDbEntity
  8
0
  6
Continuous
 62
     7
370
    15
100
AcDbLine
 10
7.1215701131
 20
1295.5942268583
 30
0.0
 11
9.6947026281
 21
1294.2603121612
 31
0.0
  0
ARC
  5
A9
330
1F
100
AcDbEntity
  8
0
  6
Continuous
 62
     7
370
    15
100
AcDbCircle
 10
7.2529268293
 20
1292.6989082906
 30
0.0
 40
2.510000000000026
100
AcDbArc
 50
302.5973255621
 51
2.5973255621
  0
ARC
  5
AA
330
1F
100
AcDbEntity
  8
0
  6
Continuous
 62
     7
370
    15
100
AcDbCircle
 10
7.2529268293
 20
1292.6989082906
 30
0.0
 40
2.510000000000002
100
AcDbArc
 50
242.5973255621
 51
302.5973255621
  0
ARC
  5
AB
330
1F
100
AcDbEntity
  8
0
  6
Continuous
 62
     7
370
    15
100
AcDbCircle
 10
7.2529268293
 20
1292.6989082906
 30
0.0
 40
2.510000000000025
100
AcDbArc
 50
182.5973255621
 51
242.5973255621
  0
ARC
  5
AC
330
1F
100
AcDbEntity
  8
0
  6
Continuous
 62
     7
370
    15
100
AcDbCircle
 10
7.2529268293
 20
1292.6989082906
 30
0.0
 40
2.510000000000025
100
AcDbArc
 50
122.5973255621
 51
182.5973255621
  0
ARC
  5
AD
330
1F
100
AcDbEntity
  8
0
  6
Continuous
 62
     7
370
    15
100
AcDbCircle
 10
7.2529268293
 20
1292.6989082906
 30
0.0
 40
2.510000000000003
100
AcDbArc
 50
62.5973255621
 51
122.5973255621
  0
ARC
  5
AE
330
1F
100
AcDbEntity
  8
0
  6
Continuous
 62
     7
370
    15
100
AcDbCircle
 10
7.2529268293
 20
1292.6989082906
 30
0.0
 40
2.510000000000026
100
AcDbArc
 50
2.5973255621
 51
62.5973255621
  0
LINE
  5
AF
330
1F
100
AcDbEntity
  8
0
  6
Continuous
 62
     7
370
    15
100
AcDbLine
 10
4.8111748723
 20
1480.1375012013
 30
0.0
 11
4.6798062352
 21
1483.0328266236
 31
0.0
  0
LINE
  5
B0
330
1F
100
AcDbEntity
  8
0
  6
Continuous
 62
     7
370
    15
100
AcDbLine
 10
9.8260116605
 20
1480.3649897787
 30
0.0
 11
7.3842477826
 21
1478.8035865042
 31
0.0
  0
LINE
  5
B1
330
1F
100
AcDbEntity
  8
0
  6
Continuous
 62
     7
370
    15
100
AcDbLine
 10
4.6798062352
 20
1483.0328266236
 30
0.0
 11
7.1215701131
 21
1484.5942298982
 31
0.0
  0
LINE
  5
B2
330
1F
100
AcDbEntity
  8
0
  6
Continuous
 62
     7
370
    15
100
AcDbLine
 10
9.6947026281
 20
1483.260315201
 30
0.0
 11
9.8260116605
 21
1480.3649897787
 31
0.0
  0
LINE
  5
B3
330
1F
100
AcDbEntity
  8
0
  6
Continuous
 62
     7
370
    15
100
AcDbLine
 10
7.1215701131
 20
1484.5942298982
 30
0.0
 11
9.6947026281
 21
1483.260315201
 31
0.0
  0
CIRCLE
  5
B4
330
1F
100
AcDbEntity
  8
0
  6
Continuous
 62
     7
370
    15
100
AcDbCircle
 10
7.2529268293
 20
1481.6989082906
 30
0.0
 40
7.785000000000003
  0
LINE
  5
B5
330
1F
100
AcDbEntity
  8
0
  6
Continuous
 62
     7
370
    15
100
AcDbLine
 10
7.3842477826
 20
1478.8035865042
 30
0.0
 11
4.8111748723
 21
1480.1375012013
 31
0.0
  0
ARC
  5
B6
330
1F
100
AcDbEntity
  8
0
  6
Continuous
 62
     7
370
    15
100
AcDbCircle
 10
7.2529268293
 20
1481.6989082906
 30
0.0
 40
2.510000000000166
100
AcDbArc
 50
302.5973255621
 51
2.5973255621
  0
ARC
  5
B7
330
1F
100
AcDbEntity
  8
0
  6
Continuous
 62
     7
370
    15
100
AcDbCircle
 10
7.2529268293
 20
1481.6989082906
 30
0.0
 40
2.510000000000166
100
AcDbArc
 50
242.5973255621
 51
302.5973255621
  0
ARC
  5
B8
330
1F
100
AcDbEntity
  8
0
  6
Continuous
 62
     7
370
    15
100
AcDbCircle
 10
7.2529268293
 20
1481.6989082906
 30
0.0
 40
2.510000000000025
100
AcDbArc
 50
182.5973255621
 51
242.5973255621
  0
ARC
  5
B9
330
1F
100
AcDbEntity
  8
0
  6
Continuous
 62
     7
370
    15
100
AcDbCircle
 10
7.2529268293
 20
1481.6989082906
 30
0.0
 40
2.510000000000025
100
AcDbArc
 50
122.5973255621
 51
182.5973255621
  0
ARC
  5
BA
330
1F
100
AcDbEntity
  8
0
  6
Continuous
 62
     7
370
    15
100
AcDbCircle
 10
7.2529268293
 20
1481.6989082906
 30
0.0
 40
2.509999999999974
100
AcDbArc
 50
62.5973255621
 51
122.5973255621
  0
ARC
  5
BB
330
1F
100
AcDbEntity
  8
0
  6
Continuous
 62
     7
370
    15
100
AcDbCircle
 10
7.2529268293
 20
1481.6989082906
 30
0.0
 40
2.510000000000014
100
AcDbArc
 50
2.5973255621
 51
62.5973255621
  0
LINE
  5
BC
330
1F
100
AcDbEntity
  8
0
  6
Continuous
 62
     7
370
    15
100
AcDbLine
 10
-692.8784105154
 20
1484.5942298982
 30
0.0
 11
-690.3053227039
 21
1483.260315201
 31
0.0
  0
LINE
  5
BD
330
1F
100
AcDbEntity
  8
0
  6
Continuous
 62
     7
370
    15
100
AcDbLine
 10
-690.1739838691
 20
1480.3649897787
 30
0.0
 11
-692.6157328459
 21
1478.8035865042
 31
0.0
  0
CIRCLE
  5
BE
330
1F
100
AcDbEntity
  8
0
  6
Continuous
 62
     7
370
    15
100
AcDbCircle
 10
-692.7470731707
 20
1481.6989082906
 30
0.0
 40
7.785000000000005
  0
LINE
  5
BF
330
1F
100
AcDbEntity
  8
0
  6
Continuous
 62
     7
370
    15
100
AcDbLine
 10
-690.3053227039
 20
1483.260315201
 30
0.0
 11
-690.1739838691
 21
1480.3649897787
 31
0.0
  0
LINE
  5
C0
330
1F
100
AcDbEntity
  8
0
  6
Continuous
 62
     7
370
    15
100
AcDbLine
 10
-695.1888281079
 20
1480.1375012013
 30
0.0
 11
-695.3201669427
 21
1483.0328266236
 31
0.0
  0
LINE
  5
C1
330
1F
100
AcDbEntity
  8
0
  6
Continuous
 62
     7
370
    15
100
AcDbLine
 10
-692.6157328459
 20
1478.8035865042
 30
0.0
 11
-695.1888281079
 21
1480.1375012013
 31
0.0
  0
LINE
  5
C2
330
1F
100
AcDbEntity
  8
0
  6
Continuous
 62
     7
370
    15
100
AcDbLine
 10
-695.3201669427
 20
1483.0328266236
 30
0.0
 11
-692.8784105154
 21
1484.5942298982
 31
0.0
  0
ARC
  5
C3
330
1F
100
AcDbEntity
  8
0
  6
Continuous
 62
     7
370
    15
100
AcDbCircle
 10
-692.7470731707
 20
1481.6989082906
 30
0.0
 40
2.510000000000059
100
AcDbArc
 50
242.5973255621
 51
302.5973255621
  0
ARC
  5
C4
330
1F
100
AcDbEntity
  8
0
  6
Continuous
 62
     7
370
    15
100
AcDbCircle
 10
-692.7470731707
 20
1481.6989082906
 30
0.0
 40
2.510000000000034
100
AcDbArc
 50
2.5973255621
 51
62.5973255621
  0
ARC
  5
C5
330
1F
100
AcDbEntity
  8
0
  6
Continuous
 62
     7
370
    15
100
AcDbCircle
 10
-692.7470731707
 20
1481.6989082906
 30
0.0
 40
2.510000000000059
100
AcDbArc
 50
182.5973255621
 51
242.5973255621
  0
ARC
  5
C6
330
1F
100
AcDbEntity
  8
0
  6
Continuous
 62
     7
370
    15
100
AcDbCircle
 10
-692.7470731707
 20
1481.6989082906
 30
0.0
 40
2.510000000000034
100
AcDbArc
 50
302.5973255621
 51
2.5973255621
  0
ARC
  5
C7
330
1F
100
AcDbEntity
  8
0
  6
Continuous
 62
     7
370
    15
100
AcDbCircle
 10
-692.7470731707
 20
1481.6989082906
 30
0.0
 40
2.510000000000034
100
AcDbArc
 50
122.5973255621
 51
182.5973255621
  0
ARC
  5
C8
330
1F
100
AcDbEntity
  8
0
  6
Continuous
 62
     7
370
    15
100
AcDbCircle
 10
-692.7470731707
 20
1481.6989082906
 30
0.0
 40
2.510000000000034
100
AcDbArc
 50
62.5973255621
 51
122.5973255621
  0
LINE
  5
C9
330
1F
100
AcDbEntity
  8
0
  6
Continuous
 62
     7
370
    15
100
AcDbLine
 10
-692.6157328459
 20
1418.8035878453
 30
0.0
 11
-695.1888281079
 21
1420.1375044051
 31
0.0
  0
LINE
  5
CA
330
1F
100
AcDbEntity
  8
0
  6
Continuous
 62
     7
370
    15
100
AcDbLine
 10
-695.3201669427
 20
1423.0328242394
 30
0.0
 11
-692.8784105154
 21
1424.5942293766
 31
0.0
  0
LINE
  5
CB
330
1F
100
AcDbEntity
  8
0
  6
Continuous
 62
     7
370
    15
100
AcDbLine
 10
-695.1888281079
 20
1420.1375044051
 30
0.0
 11
-695.3201669427
 21
1423.0328242394
 31
0.0
  0
LINE
  5
CC
330
1F
100
AcDbEntity
  8
0
  6
Continuous
 62
     7
370
    15
100
AcDbLine
 10
-690.3053227039
 20
1423.2603128168
 30
0.0
 11
-690.1739838691
 21
1420.3649911198
 31
0.0
  0
LINE
  5
CD
330
1F
100
AcDbEntity
  8
0
  6
Continuous
 62
     7
370
    15
100
AcDbLine
 10
-690.1739838691
 20
1420.3649911198
 30
0.0
 11
-692.6157328459
 21
1418.8035878453
 31
0.0
  0
CIRCLE
  5
CE
330
1F
100
AcDbEntity
  8
0
  6
Continuous
 62
     7
370
    15
100
AcDbCircle
 10
-692.7470731707
 20
1421.6989082906
 30
0.0
 40
7.785000000000005
  0
LINE
  5
CF
330
1F
100
AcDbEntity
  8
0
  6
Continuous
 62
     7
370
    15
100
AcDbLine
 10
-692.8784105154
 20
1424.5942293766
 30
0.0
 11
-690.3053227039
 21
1423.2603128168
 31
0.0
  0
ARC
  5
D0
330
1F
100
AcDbEntity
  8
0
  6
Continuous
 62
     7
370
    15
100
AcDbCircle
 10
-692.7470731707
 20
1421.6989082906
 30
0.0
 40
2.510000000000034
100
AcDbArc
 50
302.5973255621
 51
2.5973255621
  0
ARC
  5
D1
330
1F
100
AcDbEntity
  8
0
  6
Continuous
 62
     7
370
    15
100
AcDbCircle
 10
-692.7470731707
 20
1421.6989082906
 30
0.0
 40
2.510000000000034
100
AcDbArc
 50
242.5973255621
 51
302.5973255621
  0
ARC
  5
D2
330
1F
100
AcDbEntity
  8
0
  6
Continuous
 62
     7
370
    15
100
AcDbCircle
 10
-692.7470731707
 20
1421.6989082906
 30
0.0
 40
2.510000000000023
100
AcDbArc
 50
182.5973255621
 51
242.5973255621
  0
ARC
  5
D3
330
1F
100
AcDbEntity
  8
0
  6
Continuous
 62
     7
370
    15
100
AcDbCircle
 10
-692.7470731707
 20
1421.6989082906
 30
0.0
 40
2.510000000000023
100
AcDbArc
 50
122.5973255621
 51
182.5973255621
  0
ARC
  5
D4
330
1F
100
AcDbEntity
  8
0
  6
Continuous
 62
     7
370
    15
100
AcDbCircle
 10
-692.7470731707
 20
1421.6989082906
 30
0.0
 40
2.510000000000006
100
AcDbArc
 50
62.5973255621
 51
122.5973255621
  0
ARC
  5
D5
330
1F
100
AcDbEntity
  8
0
  6
Continuous
 62
     7
370
    15
100
AcDbCircle
 10
-692.7470731707
 20
1421.6989082906
 30
0.0
 40
2.510000000000034
100
AcDbArc
 50
2.5973255621
 51
62.5973255621
  0
LINE
  5
D6
330
1F
100
AcDbEntity
  8
0
  6
Continuous
 62
     7
370
    15
100
AcDbLine
 10
9.6947026281
 20
1423.2603128168
 30
0.0
 11
9.8260116605
 21
1420.3649911198
 31
0.0
  0
LINE
  5
D7
330
1F
100
AcDbEntity
  8
0
  6
Continuous
 62
     7
370
    15
100
AcDbLine
 10
7.1215701131
 20
1424.5942293766
 30
0.0
 11
9.6947026281
 21
1423.2603128168
 31
0.0
  0
LINE
  5
D8
330
1F
100
AcDbEntity
  8
0
  6
Continuous
 62
     7
370
    15
100
AcDbLine
 10
4.6798062352
 20
1423.0328242394
 30
0.0
 11
7.1215701131
 21
1424.5942293766
 31
0.0
  0
LINE
  5
D9
330
1F
100
AcDbEntity
  8
0
  6
Continuous
 62
     7
370
    15
100
AcDbLine
 10
4.8111748723
 20
1420.1375044051
 30
0.0
 11
4.6798062352
 21
1423.0328242394
 31
0.0
  0
LINE
  5
DA
330
1F
100
AcDbEntity
  8
0
  6
Continuous
 62
     7
370
    15
100
AcDbLine
 10
9.8260116605
 20
1420.3649911198
 30
0.0
 11
7.3842477826
 21
1418.8035878453
 31
0.0
  0
CIRCLE
  5
DB
330
1F
100
AcDbEntity
  8
0
  6
Continuous
 62
     7
370
    15
100
AcDbCircle
 10
7.2529268293
 20
1421.6989082906
 30
0.0
 40
7.785000000000004
  0
LINE
  5
DC
330
1F
100
AcDbEntity
  8
0
  6
Continuous
 62
     7
370
    15
100
AcDbLine
 10
7.3842477826
 20
1418.8035878453
 30
0.0
 11
4.8111748723
 21
1420.1375044051
 31
0.0
  0
ARC
  5
DD
330
1F
100
AcDbEntity
  8
0
  6
Continuous
 62
     7
370
    15
100
AcDbCircle
 10
7.2529268293
 20
1421.6989082906
 30
0.0
 40
2.510000000000025
100
AcDbArc
 50
2.5973255621
 51
62.5973255621
  0
ARC
  5
DE
330
1F
100
AcDbEntity
  8
0
  6
Continuous
 62
     7
370
    15
100
AcDbCircle
 10
7.2529268293
 20
1421.6989082906
 30
0.0
 40
2.510000000000025
100
AcDbArc
 50
302.5973255621
 51
2.5973255621
  0
ARC
  5
DF
330
1F
100
AcDbEntity
  8
0
  6
Continuous
 62
     7
370
    15
100
AcDbCircle
 10
7.2529268293
 20
1421.6989082906
 30
0.0
 40
2.510000000000002
100
AcDbArc
 50
242.5973255621
 51
302.5973255621
  0
ARC
  5
E0
330
1F
100
AcDbEntity
  8
0
  6
Continuous
 62
     7
370
    15
100
AcDbCircle
 10
7.2529268293
 20
1421.6989082906
 30
0.0
 40
2.510000000000035
100
AcDbArc
 50
182.5973255621
 51
242.5973255621
  0
ARC
  5
E1
330
1F
100
AcDbEntity
  8
0
  6
Continuous
 62
     7
370
    15
100
AcDbCircle
 10
7.2529268293
 20
1421.6989082906
 30
0.0
 40
2.510000000000035
100
AcDbArc
 50
122.5973255621
 51
182.5973255621
  0
ARC
  5
E2
330
1F
100
AcDbEntity
  8
0
  6
Continuous
 62
     7
370
    15
100
AcDbCircle
 10
7.2529268293
 20
1421.6989082906
 30
0.0
 40
2.510000000000002
100
AcDbArc
 50
62.5973255621
 51
122.5973255621
  0
LINE
  5
E3
330
1F
100
AcDbEntity
  8
0
  6
Continuous
 62
     7
370
    15
100
AcDbLine
 10
-729.0379855009
 20
1444.8553438398
 30
0.0
 11
-729.4136437746
 21
1441.9931399736
 31
0.0
  0
LWPOLYLINE
  5
E4
330
1F
100
AcDbEntity
  8
0
  6
Continuous
 62
     7
370
    15
100
AcDbPolyline
 90
        9
 70
   128
 43
0.0
 10
-729.4136437746
 20
1441.9931399736
 10
-729.4177415939
 20
1441.9914412412
 10
-729.4298860403
 20
1441.986408374
 10
-729.4496002765
 20
1441.9782313618
 10
-729.4761243435
 20
1441.9672305796
 10
-729.5084524127
 20
1441.9538269851
 10
-729.5453327866
 20
1441.9385309431
 10
-729.5853573056
 20
1441.9219385001
 10
-729.6269687982
 20
1441.9046792302
  0
LINE
  5
E5
330
1F
100
AcDbEntity
  8
0
  6
Continuous
 62
     7
370
    15
100
AcDbLine
 10
-729.6269687982
 20
1441.9046792302
 30
0.0
 11
-729.2212548824
 21
1444.9958580646
 31
0.0
  0
LWPOLYLINE
  5
E6
330
1F
100
AcDbEntity
  8
0
  6
Continuous
 62
     7
370
    15
100
AcDbPolyline
 90
        9
 70
   128
 43
0.0
 10
-729.0379855009
 20
1444.8553438398
 10
-729.0415021749
 20
1444.8580446753
 10
-729.0519329878
 20
1444.8660391483
 10
-729.0688681575
 20
1444.8790255103
 10
-729.0916594835
 20
1444.8965008471
 10
-729.119435248
 20
1444.9177946064
 10
-729.1511225672
 20
1444.9420872244
 10
-729.1854995461
 20
1444.9684473786
 10
-729.2212548824
 20
1444.9958580646
  0
CIRCLE
  5
E7
330
1F
100
AcDbEntity
  8
0
  6
Continuous
 62
     7
370
    15
100
AcDbCircle
 10
-726.7470731707
 20
1443.0989082906
 30
0.0
 40
12.91715728752525
  0
CIRCLE
  5
E8
330
1F
100
AcDbEntity
  8
0
  6
Continuous
 62
     7
370
    15
100
AcDbCircle
 10
-726.7470731707
 20
1443.0989082906
 30
0.0
 40
13.05857864376268
  0
LINE
  5
E9
330
1F
100
AcDbEntity
  8
0
  6
Continuous
 62
     7
370
    15
100
AcDbLine
 10
-723.8671708079
 20
1444.2931379292
 30
0.0
 11
-724.2728921743
 21
1441.2019553694
 31
0.0
  0
LINE
  5
EA
330
1F
100
AcDbEntity
  8
0
  6
Continuous
 62
     7
370
    15
100
AcDbLine
 10
-726.3413596125
 20
1446.1900892767
 30
0.0
 11
-723.8671708079
 21
1444.2931379292
 31
0.0
  0
LINE
  5
EB
330
1F
100
AcDbEntity
  8
0
  6
Continuous
 62
     7
370
    15
100
AcDbLine
 10
-729.2212548824
 20
1444.9958580646
 30
0.0
 11
-726.3413596125
 21
1446.1900892767
 31
0.0
  0
LINE
  5
EC
330
1F
100
AcDbEntity
  8
0
  6
Continuous
 62
     7
370
    15
100
AcDbLine
 10
-727.1527874442
 20
1440.0077278826
 30
0.0
 11
-729.6269687982
 21
1441.9046792302
 31
0.0
  0
LINE
  5
ED
330
1F
100
AcDbEntity
  8
0
  6
Continuous
 62
     7
370
    15
100
AcDbLine
 10
-724.2728921743
 20
1441.2019553694
 30
0.0
 11
-727.1527874442
 21
1440.0077278826
 31
0.0
  0
LINE
  5
EE
330
1F
100
AcDbEntity
  8
0
  6
Continuous
 62
     7
370
    15
100
AcDbLine
 10
-729.4136437746
 20
1441.9931399736
 30
0.0
 11
-727.1227392526
 21
1440.2367028508
 31
0.0
  0
LWPOLYLINE
  5
EF
330
1F
100
AcDbEntity
  8
0
  6
Continuous
 62
     7
370
    15
100
AcDbPolyline
 90
        9
 70
   128
 43
0.0
 10
-727.1527874442
 20
1440.0077278826
 10
-727.1469238373
 20
1440.0523978385
 10
-727.1412911983
 20
1440.095354161
 10
-727.1360906931
 20
1440.1349390957
 10
-727.1315383883
 20
1440.1696401748
 10
-727.1278056474
 20
1440.1981162939
 10
-727.1250265809
 20
1440.2192759428
 10
-727.1233129473
 20
1440.2323032829
 10
-727.1227392526
 20
1440.2367028508
  0
LINE
  5
F0
330
1F
100
AcDbEntity
  8
0
  6
Continuous
 62
     7
370
    15
100
AcDbLine
 10
-727.1227392526
 20
1440.2367028508
 30
0.0
 11
-724.4561615558
 21
1441.3424733195
 31
0.0
  0
LWPOLYLINE
  5
F1
330
1F
100
AcDbEntity
  8
0
  6
Continuous
 62
     7
370
    15
100
AcDbPolyline
 90
       10
 70
   128
 43
0.0
 10
-724.2728921743
 20
1441.2019553694
 10
-724.304713604
 20
1441.2263560209
 10
-724.3355739089
 20
1441.2500153396
 10
-724.3645268651
 20
1441.2722143445
 10
-724.3906933041
 20
1441.292278758
 10
-724.4132834645
 20
1441.3095976326
 10
-724.4316118928
 20
1441.3236457023
 10
-724.4451123448
 20
1441.3339982841
 10
-724.4533824893
 20
1441.3403387281
 10
-724.4561615558
 20
1441.3424733195
  0
LINE
  5
F2
330
1F
100
AcDbEntity
  8
0
  6
Continuous
 62
     7
370
    15
100
AcDbLine
 10
-726.3714078041
 20
1445.9611105833
 30
0.0
 11
-729.0379855009
 21
1444.8553438398
 31
0.0
  0
LWPOLYLINE
  5
F3
330
1F
100
AcDbEntity
  8
0
  6
Continuous
 62
     7
370
    15
100
AcDbPolyline
 90
       10
 70
   128
 43
0.0
 10
-726.3714078041
 20
1445.9611105833
 10
-726.3709533187
 20
1445.9645900044
 10
-726.369597313
 20
1445.9749202344
 10
-726.3673844906
 20
1445.9917883489
 10
-726.364374456
 20
1446.014683983
 10
-726.3606715174
 20
1446.0429067823
 10
-726.356379983
 20
1446.07559993
 10
-726.3516339632
 20
1446.1117724988
 10
-726.346575019
 20
1446.1503255281
 10
-726.3413596125
 20
1446.1900892767
  0
LINE
  5
F4
330
1F
100
AcDbEntity
  8
0
  6
Continuous
 62
     7
370
    15
100
AcDbLine
 10
-724.0805032821
 20
1444.2046771857
 30
0.0
 11
-726.3714078041
 21
1445.9611105833
 31
0.0
  0
LWPOLYLINE
  5
F5
330
1F
100
AcDbEntity
  8
0
  6
Continuous
 62
     7
370
    15
100
AcDbPolyline
 90
       10
 70
   128
 43
0.0
 10
-723.8671708079
 20
1444.2931379292
 10
-723.9042150946
 20
1444.277774832
 10
-723.9401343437
 20
1444.2628811214
 10
-723.9738407703
 20
1444.2489075574
 10
-724.0042987438
 20
1444.236275098
 10
-724.0305918427
 20
1444.2253711733
 10
-724.051922855
 20
1444.2165273342
 10
-724.0676361294
 20
1444.2100118014
 10
-724.0772622796
 20
1444.2060182902
 10
-724.0805032821
 20
1444.2046771857
  0
LINE
  5
F6
330
1F
100
AcDbEntity
  8
0
  6
Continuous
 62
     7
370
    15
100
AcDbLine
 10
-724.4561615558
 20
1441.3424733195
 30
0.0
 11
-724.0805032821
 21
1444.2046771857
 31
0.0
  0
CIRCLE
  5
F7
330
1F
100
AcDbEntity
  8
0
  6
Continuous
 62
     7
370
    15
100
AcDbCircle
 10
-726.7470731707
 20
1443.0989082906
 30
0.0
 40
14.94142135623732
  0
CIRCLE
  5
F8
330
1F
100
AcDbEntity
  8
0
  6
Continuous
 62
     7
370
    15
100
AcDbCircle
 10
-726.7470731707
 20
1443.0989082906
 30
0.0
 40
15.00000000000001
  0
LINE
  5
F9
330
1F
100
AcDbEntity
  8
0
  6
Continuous
 62
     7
370
    15
100
AcDbLine
 10
1242.9620695142
 20
1444.8553438398
 30
0.0
 11
1242.5863218335
 21
1441.9931399736
 31
0.0
  0
LINE
  5
FA
330
1F
100
AcDbEntity
  8
0
  6
Continuous
 62
     7
370
    15
100
AcDbLine
 10
1242.3729372052
 20
1441.9046792302
 30
0.0
 11
1242.5863218335
 21
1441.9931399736
 31
0.0
  0
LINE
  5
FB
330
1F
100
AcDbEntity
  8
0
  6
Continuous
 62
     7
370
    15
100
AcDbLine
 10
1242.3729372052
 20
1441.9046792302
 30
0.0
 11
1242.7787256269
 21
1444.9958580646
 31
0.0
  0
ARC
  5
FC
330
1F
100
AcDbEntity
  8
0
  6
Continuous
 62
     7
370
    15
100
AcDbCircle
 10
1248.7066115897
 20
1452.5407315009
 30
0.0
 40
9.595048053944845
100
AcDbArc
 50
231.843848099
 51
233.2232497362
  0
LINE
  5
FD
330
1F
100
AcDbEntity
  8
0
  6
Continuous
 62
     7
370
    15
100
AcDbLine
 10
1248.1328916578
 20
1444.2931379292
 30
0.0
 11
1247.7271032361
 21
1441.2019553694
 31
0.0
  0
LWPOLYLINE
  5
FE
330
1F
100
AcDbEntity
  8
0
  6
Continuous
 62
     7
370
    15
100
AcDbPolyline
 90
       10
 70
   128
 43
0.0
 10
1247.7271032361
 20
1441.2019553694
 10
1247.6953935651
 20
1441.2263560209
 10
1247.6643991498
 20
1441.2500153396
 10
1247.6355505018
 20
1441.2722143445
 10
1247.6093244581
 20
1441.292278758
 10
1247.586674693
 20
1441.3095976326
 10
1247.5683164624
 20
1441.3236457023
 10
1247.554965022
 20
1441.3339982841
 10
1247.5466203717
 20
1441.3403387281
 10
1247.5437593488
 20
1441.3424733195
  0
LINE
  5
FF
330
1F
100
AcDbEntity
  8
0
  6
Continuous
 62
     7
370
    15
100
AcDbLine
 10
1247.5437593488
 20
1441.3424733195
 30
0.0
 11
1247.9195070295
 21
1444.2046771857
 31
0.0
  0
LINE
  5
100
330
1F
100
AcDbEntity
  8
0
  6
Continuous
 62
     7
370
    15
100
AcDbLine
 10
1247.9195070295
 20
1444.2046771857
 30
0.0
 11
1248.1328916578
 21
1444.2931379292
 31
0.0
  0
LINE
  5
101
330
1F
100
AcDbEntity
  8
0
  6
Continuous
 62
     7
370
    15
100
AcDbLine
 10
1247.9195070295
 20
1444.2046771857
 30
0.0
 11
1245.6285429029
 21
1445.9611105833
 31
0.0
  0
LWPOLYLINE
  5
102
330
1F
100
AcDbEntity
  8
0
  6
Continuous
 62
     7
370
    15
100
AcDbPolyline
 90
       10
 70
   128
 43
0.0
 10
1245.6285429029
 20
1445.9611105833
 10
1245.62901974
 20
1445.9645900044
 10
1245.6304502515
 20
1445.9749202344
 10
1245.6325960187
 20
1445.9917883489
 10
1245.6356954602
 20
1446.014683983
 10
1245.6392717389
 20
1446.0429067823
 10
1245.6435632734
 20
1446.07559993
 10
1245.6483316449
 20
1446.1117724988
 10
1245.6533384351
 20
1446.1503255281
 10
1245.6585836438
 20
1446.1900892767
  0
LINE
  5
103
330
1F
100
AcDbEntity
  8
0
  6
Continuous
 62
     7
370
    15
100
AcDbLine
 10
1245.6585836438
 20
1446.1900892767
 30
0.0
 11
1248.1328916578
 21
1444.2931379292
 31
0.0
  0
LINE
  5
104
330
1F
100
AcDbEntity
  8
0
  6
Continuous
 62
     7
370
    15
100
AcDbLine
 10
1247.7271032361
 20
1441.2019553694
 30
0.0
 11
1244.8472452192
 21
1440.0077278826
 31
0.0
  0
LWPOLYLINE
  5
105
330
1F
100
AcDbEntity
  8
0
  6
Continuous
 62
     7
370
    15
100
AcDbPolyline
 90
        9
 70
   128
 43
0.0
 10
1244.8472452192
 20
1440.0077278826
 10
1244.8529672651
 20
1440.0523978385
 10
1244.858689311
 20
1440.095354161
 10
1244.8639345197
 20
1440.1349390957
 10
1244.8684644727
 20
1440.1696401748
 10
1244.87227917
 20
1440.1981162939
 10
1244.8749017743
 20
1440.2192759428
 10
1244.8765707044
 20
1440.2323032829
 10
1244.8772859601
 20
1440.2367028508
  0
LINE
  5
106
330
1F
100
AcDbEntity
  8
0
  6
Continuous
 62
     7
370
    15
100
AcDbLine
 10
1244.8772859601
 20
1440.2367028508
 30
0.0
 11
1247.5437593488
 21
1441.3424733195
 31
0.0
  0
LINE
  5
107
330
1F
100
AcDbEntity
  8
0
  6
Continuous
 62
     7
370
    15
100
AcDbLine
 10
1245.6285429029
 20
1445.9611105833
 30
0.0
 11
1242.9620695142
 21
1444.8553438398
 31
0.0
  0
LINE
  5
108
330
1F
100
AcDbEntity
  8
0
  6
Continuous
 62
     7
370
    15
100
AcDbLine
 10
1242.7787256269
 20
1444.9958580646
 30
0.0
 11
1245.6585836438
 21
1446.1900892767
 31
0.0
  0
CIRCLE
  5
109
330
1F
100
AcDbEntity
  8
0
  6
Continuous
 62
     7
370
    15
100
AcDbCircle
 10
1245.2529268293
 20
1443.0989082906
 30
0.0
 40
12.91715728752534
  0
CIRCLE
  5
10A
330
1F
100
AcDbEntity
  8
0
  6
Continuous
 62
     7
370
    15
100
AcDbCircle
 10
1245.2529268293
 20
1443.0989082906
 30
0.0
 40
13.05857864376257
  0
LINE
  5
10B
330
1F
100
AcDbEntity
  8
0
  6
Continuous
 62
     7
370
    15
100
AcDbLine
 10
1242.5863218335
 20
1441.9931399736
 30
0.0
 11
1244.8772859601
 21
1440.2367028508
 31
0.0
  0
LINE
  5
10C
330
1F
100
AcDbEntity
  8
0
  6
Continuous
 62
     7
370
    15
100
AcDbLine
 10
1244.8472452192
 20
1440.0077278826
 30
0.0
 11
1242.3729372052
 21
1441.9046792302
 31
0.0
  0
CIRCLE
  5
10D
330
1F
100
AcDbEntity
  8
0
  6
Continuous
 62
     7
370
    15
100
AcDbCircle
 10
1245.2529268293
 20
1443.0989082906
 30
0.0
 40
14.94142135623763
  0
CIRCLE
  5
10E
330
1F
100
AcDbEntity
  8
0
  6
Continuous
 62
     7
370
    15
100
AcDbCircle
 10
1245.2529268293
 20
1443.0989082906
 30
0.0
 40
15.00000000000014
  0
CIRCLE
  5
10F
330
1F
100
AcDbEntity
  8
0
  6
Continuous
 62
     7
370
    15
100
AcDbCircle
 10
-692.7470731707
 20
1347.6989082906
 30
0.0
 40
8.74999999999998
  0
CIRCLE
  5
110
330
1F
100
AcDbEntity
  8
0
  6
Continuous
 62
     7
370
    15
100
AcDbCircle
 10
-692.7470731707
 20
1347.6989082906
 30
0.0
 40
13.00000000000002
  0
CIRCLE
  5
111
330
1F
100
AcDbEntity
  8
0
  6
Continuous
 62
     7
370
    15
100
AcDbCircle
 10
-692.7470731707
 20
1347.6989082906
 30
0.0
 40
15.00000000000005
  0
CIRCLE
  5
112
330
1F
100
AcDbEntity
  8
0
  6
Continuous
 62
     7
370
    15
100
AcDbCircle
 10
7.2529268293
 20
1347.6989082906
 30
0.0
 40
8.75000000000019
  0
CIRCLE
  5
113
330
1F
100
AcDbEntity
  8
0
  6
Continuous
 62
     7
370
    15
100
AcDbCircle
 10
7.2529268293
 20
1347.6989082906
 30
0.0
 40
12.99999999999984
  0
CIRCLE
  5
114
330
1F
100
AcDbEntity
  8
0
  6
Continuous
 62
     7
370
    15
100
AcDbCircle
 10
7.2529268293
 20
1347.6989082906
 30
0.0
 40
14.99999999999988
  0
CIRCLE
  5
115
330
1F
100
AcDbEntity
  8
0
  6
Continuous
 62
     7
370
    15
100
AcDbCircle
 10
7.2529268293
 20
1292.6989082906
 30
0.0
 40
8.749999999999988
  0
CIRCLE
  5
116
330
1F
100
AcDbEntity
  8
0
  6
Continuous
 62
     7
370
    15
100
AcDbCircle
 10
7.2529268293
 20
1292.6989082906
 30
0.0
 40
15.00000000000001
  0
CIRCLE
  5
117
330
1F
100
AcDbEntity
  8
0
  6
Continuous
 62
     7
370
    15
100
AcDbCircle
 10
7.2529268293
 20
1292.6989082906
 30
0.0
 40
12.99999999999998
  0
CIRCLE
  5
118
330
1F
100
AcDbEntity
  8
0
  6
Continuous
 62
     7
370
    15
100
AcDbCircle
 10
-692.7470731707
 20
1292.6989082906
 30
0.0
 40
15.0
  0
CIRCLE
  5
119
330
1F
100
AcDbEntity
  8
0
  6
Continuous
 62
     7
370
    15
100
AcDbCircle
 10
-692.7470731707
 20
1292.6989082906
 30
0.0
 40
13.00000000000001
  0
CIRCLE
  5
11A
330
1F
100
AcDbEntity
  8
0
  6
Continuous
 62
     7
370
    15
100
AcDbCircle
 10
-692.7470731707
 20
1292.6989082906
 30
0.0
 40
8.750000000000002
  0
CIRCLE
  5
11B
330
1F
100
AcDbEntity
  8
0
  6
Continuous
 62
     7
370
    15
100
AcDbCircle
 10
7.2529268293
 20
1421.6989082906
 30
0.0
 40
15.00000000000001
  0
CIRCLE
  5
11C
330
1F
100
AcDbEntity
  8
0
  6
Continuous
 62
     7
370
    15
100
AcDbCircle
 10
7.2529268293
 20
1421.6989082906
 30
0.0
 40
12.99999999999998
  0
CIRCLE
  5
11D
330
1F
100
AcDbEntity
  8
0
  6
Continuous
 62
     7
370
    15
100
AcDbCircle
 10
7.2529268293
 20
1421.6989082906
 30
0.0
 40
8.74999999999999
  0
CIRCLE
  5
11E
330
1F
100
AcDbEntity
  8
0
  6
Continuous
 62
     7
370
    15
100
AcDbCircle
 10
-692.7470731707
 20
1421.6989082906
 30
0.0
 40
8.750000000000002
  0
CIRCLE
  5
11F
330
1F
100
AcDbEntity
  8
0
  6
Continuous
 62
     7
370
    15
100
AcDbCircle
 10
-692.7470731707
 20
1421.6989082906
 30
0.0
 40
15.0
  0
CIRCLE
  5
120
330
1F
100
AcDbEntity
  8
0
  6
Continuous
 62
     7
370
    15
100
AcDbCircle
 10
-692.7470731707
 20
1421.6989082906
 30
0.0
 40
13.00000000000001
  0
CIRCLE
  5
121
330
1F
100
AcDbEntity
  8
0
  6
Continuous
 62
     7
370
    15
100
AcDbCircle
 10
-692.7470731707
 20
1481.6989082906
 30
0.0
 40
8.750000000000002
  0
CIRCLE
  5
122
330
1F
100
AcDbEntity
  8
0
  6
Continuous
 62
     7
370
    15
100
AcDbCircle
 10
-692.7470731707
 20
1481.6989082906
 30
0.0
 40
12.99999999999999
  0
CIRCLE
  5
123
330
1F
100
AcDbEntity
  8
0
  6
Continuous
 62
     7
370
    15
100
AcDbCircle
 10
-692.7470731707
 20
1481.6989082906
 30
0.0
 40
15.0
  0
CIRCLE
  5
124
330
1F
100
AcDbEntity
  8
0
  6
Continuous
 62
     7
370
    15
100
AcDbCircle
 10
7.2529268293
 20
1481.6989082906
 30
0.0
 40
8.749999999999988
  0
CIRCLE
  5
125
330
1F
100
AcDbEntity
  8
0
  6
Continuous
 62
     7
370
    15
100
AcDbCircle
 10
7.2529268293
 20
1481.6989082906
 30
0.0
 40
12.99999999999997
  0
CIRCLE
  5
126
330
1F
100
AcDbEntity
  8
0
  6
Continuous
 62
     7
370
    15
100
AcDbCircle
 10
7.2529268293
 20
1481.6989082906
 30
0.0
 40
15.00000000000001
  0
ARC
  5
127
330
1F
100
AcDbEntity
  8
0
  6
Continuous
 62
     7
370
    15
100
AcDbCircle
 10
7.2529268293
 20
1481.6989082906
 30
0.0
 40
29.00000000000009
100
AcDbArc
 50
301.1473899215
 51
238.8526100785
  0
ARC
  5
128
330
1F
100
AcDbEntity
  8
0
  6
Continuous
 62
     7
370
    15
100
AcDbCircle
 10
-692.7470731707
 20
1481.6989082906
 30
0.0
 40
28.99999999999999
100
AcDbArc
 50
301.1473899215
 51
238.8526100785
  0
LINE
  5
129
330
1F
100
AcDbEntity
  8
0
  6
Continuous
 62
     7
370
    15
100
AcDbLine
 10
-707.7470722767
 20
1292.6989088866
 30
0.0
 11
-707.7470722767
 21
1481.6989119265
 31
0.0
  0
LINE
  5
12A
330
1F
100
AcDbEntity
  8
0
  6
Continuous
 62
     7
370
    15
100
AcDbLine
 10
-677.7470710846
 20
1481.6989119265
 30
0.0
 11
-677.7470710846
 21
1292.6989088866
 31
0.0
  0
LINE
  5
12B
330
1F
100
AcDbEntity
  8
0
  6
Continuous
 62
     7
370
    15
100
AcDbLine
 10
22.2529244451
 20
1481.6989119265
 30
0.0
 11
22.2529244451
 21
1292.6989088866
 31
0.0
  0
LINE
  5
12C
330
1F
100
AcDbEntity
  8
0
  6
Continuous
 62
     7
370
    15
100
AcDbLine
 10
-7.7470469447
 20
1292.6989088866
 30
0.0
 11
-7.7470469447
 21
1481.6989119265
 31
0.0
  0
LINE
  5
12D
330
1F
100
AcDbEntity
  8
0
  6
Continuous
 62
     7
370
    15
100
AcDbLine
 10
107.2529029874
 20
1402.6989082906
 30
0.0
 11
22.2529244451
 21
1402.6989082906
 31
0.0
  0
LINE
  5
12E
330
1F
100
AcDbEntity
  8
0
  6
Continuous
 62
     7
370
    15
100
AcDbLine
 10
-7.7470469447
 20
1402.6989082906
 30
0.0
 11
-677.7470710846
 21
1402.6989082906
 31
0.0
  0
LINE
  5
12F
330
1F
100
AcDbEntity
  8
0
  6
Continuous
 62
     7
370
    15
100
AcDbLine
 10
-707.7470722767
 20
1402.6989082906
 30
0.0
 11
-792.7470731707
 21
1402.6989082906
 31
0.0
  0
LINE
  5
130
330
1F
100
AcDbEntity
  8
0
  6
Continuous
 62
     7
370
    15
100
AcDbLine
 10
-792.7470731707
 20
-647.3010440257
 30
0.0
 11
107.2529029874
 21
-647.3010440257
 31
0.0
  0
LINE
  5
131
330
1F
100
AcDbEntity
  8
0
  6
Continuous
 62
     7
370
    15
100
AcDbLine
 10
107.2529029874
 20
-647.3010440257
 30
0.0
 11
107.2529029874
 21
1402.6989082906
 31
0.0
  0
LINE
  5
132
330
1F
100
AcDbEntity
  8
0
  6
Continuous
 62
     7
370
    15
100
AcDbLine
 10
-792.7470731707
 20
1402.6989082906
 30
0.0
 11
-792.7470731707
 21
-647.3010440257
 31
0.0
  0
CIRCLE
  5
133
330
1F
100
AcDbEntity
  8
0
  6
Continuous
 62
     7
370
    15
100
AcDbCircle
 10
-47.7470731707
 20
1443.0989082906
 30
0.0
 40
6.44999999999994
  0
LINE
  5
134
330
1F
100
AcDbEntity
  8
0
  6
Continuous
 62
     7
370
    15
100
AcDbLine
 10
-45.2632832499
 20
1444.5700089547
 30
0.0
 11
-47.7791953059
 21
1445.9854814324
 31
0.0
  0
LINE
  5
135
330
1F
100
AcDbEntity
  8
0
  6
Continuous
 62
     7
370
    15
100
AcDbLine
 10
-47.7791953059
 20
1445.9854814324
 30
0.0
 11
-50.2629804583
 21
1444.5143791947
 31
0.0
  0
LINE
  5
136
330
1F
100
AcDbEntity
  8
0
  6
Continuous
 62
     7
370
    15
100
AcDbLine
 10
-50.2308535548
 20
1441.6278082046
 30
0.0
 11
-47.7149414988
 21
1440.2123357269
 31
0.0
  0
LINE
  5
137
330
1F
100
AcDbEntity
  8
0
  6
Continuous
 62
     7
370
    15
100
AcDbLine
 10
-47.7149414988
 20
1440.2123357269
 30
0.0
 11
-45.2311563464
 21
1441.6834379646
 31
0.0
  0
LINE
  5
138
330
1F
100
AcDbEntity
  8
0
  6
Continuous
 62
     7
370
    15
100
AcDbLine
 10
-45.2311563464
 20
1441.6834379646
 30
0.0
 11
-45.2632832499
 21
1444.5700089547
 31
0.0
  0
LINE
  5
139
330
1F
100
AcDbEntity
  8
0
  6
Continuous
 62
     7
370
    15
100
AcDbLine
 10
-50.2629804583
 20
1444.5143791947
 30
0.0
 11
-50.2308535548
 21
1441.6278082046
 31
0.0
  0
CIRCLE
  5
13A
330
1F
100
AcDbEntity
  8
0
  6
Continuous
 62
     7
370
    15
100
AcDbCircle
 10
-47.7470731707
 20
1443.0989082906
 30
0.0
 40
7.449999999999982
  0
CIRCLE
  5
13B
330
1F
100
AcDbEntity
  8
0
  6
Continuous
 62
     7
370
    15
100
AcDbCircle
 10
1179.2529268293
 20
1443.0989082906
 30
0.0
 40
6.449999999999876
  0
CIRCLE
  5
13C
330
1F
100
AcDbEntity
  8
0
  6
Continuous
 62
     7
370
    15
100
AcDbCircle
 10
1179.2529268293
 20
1443.0989082906
 30
0.0
 40
7.449999999999961
  0
LINE
  5
13D
330
1F
100
AcDbEntity
  8
0
  6
Continuous
 62
     7
370
    15
100
AcDbLine
 10
1181.7688417463
 20
1441.6834379646
 30
0.0
 11
1181.7366552381
 21
1444.5700089547
 31
0.0
  0
LINE
  5
13E
330
1F
100
AcDbEntity
  8
0
  6
Continuous
 62
     7
370
    15
100
AcDbLine
 10
1176.7370176343
 20
1444.5143791947
 30
0.0
 11
1176.7690849332
 21
1441.6278082046
 31
0.0
  0
LINE
  5
13F
330
1F
100
AcDbEntity
  8
0
  6
Continuous
 62
     7
370
    15
100
AcDbLine
 10
1176.7690849332
 20
1441.6278082046
 30
0.0
 11
1179.2849969892
 21
1440.2123357269
 31
0.0
  0
LINE
  5
140
330
1F
100
AcDbEntity
  8
0
  6
Continuous
 62
     7
370
    15
100
AcDbLine
 10
1179.2849969892
 20
1440.2123357269
 30
0.0
 11
1181.7688417463
 21
1441.6834379646
 31
0.0
  0
LINE
  5
141
330
1F
100
AcDbEntity
  8
0
  6
Continuous
 62
     7
370
    15
100
AcDbLine
 10
1181.7366552381
 20
1444.5700089547
 30
0.0
 11
1179.2208623914
 21
1445.9854814324
 31
0.0
  0
LINE
  5
142
330
1F
100
AcDbEntity
  8
0
  6
Continuous
 62
     7
370
    15
100
AcDbLine
 10
1179.2208623914
 20
1445.9854814324
 30
0.0
 11
1176.7370176343
 21
1444.5143791947
 31
0.0
  0
CIRCLE
  5
143
330
1F
100
AcDbEntity
  8
0
  6
Continuous
 62
     7
370
    15
100
AcDbCircle
 10
-660.7470731707
 20
1443.0989082906
 30
0.0
 40
6.450000000000103
  0
LINE
  5
144
330
1F
100
AcDbEntity
  8
0
  6
Continuous
 62
     7
370
    15
100
AcDbLine
 10
-658.2632887336
 20
1444.5700089547
 30
0.0
 11
-660.7791858884
 21
1445.9854814324
 31
0.0
  0
LINE
  5
145
330
1F
100
AcDbEntity
  8
0
  6
Continuous
 62
     7
370
    15
100
AcDbLine
 10
-660.7791858884
 20
1445.9854814324
 30
0.0
 11
-663.2629710408
 21
1444.5143791947
 31
0.0
  0
LINE
  5
146
330
1F
100
AcDbEntity
  8
0
  6
Continuous
 62
     7
370
    15
100
AcDbLine
 10
-663.2629710408
 20
1444.5143791947
 30
0.0
 11
-663.2308590384
 21
1441.6278082046
 31
0.0
  0
LINE
  5
147
330
1F
100
AcDbEntity
  8
0
  6
Continuous
 62
     7
370
    15
100
AcDbLine
 10
-663.2308590384
 20
1441.6278082046
 30
0.0
 11
-660.7149469825
 21
1440.2123357269
 31
0.0
  0
LINE
  5
148
330
1F
100
AcDbEntity
  8
0
  6
Continuous
 62
     7
370
    15
100
AcDbLine
 10
-658.2311767312
 20
1441.6834379646
 30
0.0
 11
-658.2632887336
 21
1444.5700089547
 31
0.0
  0
LINE
  5
149
330
1F
100
AcDbEntity
  8
0
  6
Continuous
 62
     7
370
    15
100
AcDbLine
 10
-660.7149469825
 20
1440.2123357269
 30
0.0
 11
-658.2311767312
 21
1441.6834379646
 31
0.0
  0
CIRCLE
  5
14A
330
1F
100
AcDbEntity
  8
0
  6
Continuous
 62
     7
370
    15
100
AcDbCircle
 10
-660.7470731707
 20
1443.0989082906
 30
0.0
 40
7.450000000000188
  0
CIRCLE
  5
14B
330
1F
100
AcDbEntity
  8
0
  6
Continuous
 62
     7
370
    15
100
AcDbCircle
 10
566.2529268293
 20
1443.0989082906
 30
0.0
 40
6.44999999999999
  0
CIRCLE
  5
14C
330
1F
100
AcDbEntity
  8
0
  6
Continuous
 62
     7
370
    15
100
AcDbCircle
 10
566.2529268293
 20
1443.0989082906
 30
0.0
 40
7.450000000000076
  0
LINE
  5
14D
330
1F
100
AcDbEntity
  8
0
  6
Continuous
 62
     7
370
    15
100
AcDbLine
 10
566.2208271055
 20
1445.9854814324
 30
0.0
 11
563.7369823484
 21
1444.5143791947
 31
0.0
  0
LINE
  5
14E
330
1F
100
AcDbEntity
  8
0
  6
Continuous
 62
     7
370
    15
100
AcDbLine
 10
568.7367391614
 20
1444.5700089547
 30
0.0
 11
566.2208271055
 21
1445.9854814324
 31
0.0
  0
LINE
  5
14F
330
1F
100
AcDbEntity
  8
0
  6
Continuous
 62
     7
370
    15
100
AcDbLine
 10
566.2850809125
 20
1440.2123357269
 30
0.0
 11
568.7688064603
 21
1441.6834379646
 31
0.0
  0
LINE
  5
150
330
1F
100
AcDbEntity
  8
0
  6
Continuous
 62
     7
370
    15
100
AcDbLine
 10
568.7688064603
 20
1441.6834379646
 30
0.0
 11
568.7367391614
 21
1444.5700089547
 31
0.0
  0
LINE
  5
151
330
1F
100
AcDbEntity
  8
0
  6
Continuous
 62
     7
370
    15
100
AcDbLine
 10
563.7369823484
 20
1444.5143791947
 30
0.0
 11
563.7691688566
 21
1441.6278082046
 31
0.0
  0
LINE
  5
152
330
1F
100
AcDbEntity
  8
0
  6
Continuous
 62
     7
370
    15
100
AcDbLine
 10
563.7691688566
 20
1441.6278082046
 30
0.0
 11
566.2850809125
 21
1440.2123357269
 31
0.0
  0
ARC
  5
153
330
1F
100
AcDbEntity
  8
0
  6
Continuous
 62
     7
370
    15
100
AcDbCircle
 10
-660.7470731707
 20
1443.0989082906
 30
0.0
 40
23.99999999999995
100
AcDbArc
 50
31.3881664643
 51
108.8005444417
  0
ARC
  5
154
330
1F
100
AcDbEntity
  8
0
  6
Continuous
 62
     7
370
    15
100
AcDbCircle
 10
-660.7470731707
 20
1443.0989082906
 30
0.0
 40
24.00000000000006
100
AcDbArc
 50
224.9005279607
 51
328.6118335357
  0
ARC
  5
155
330
1F
100
AcDbEntity
  8
0
  6
Continuous
 62
     7
370
    15
100
AcDbCircle
 10
-660.7470731707
 20
1443.0989082906
 30
0.0
 40
25.00000000000018
100
AcDbArc
 50
227.1563569564
 51
330.0
  0
ARC
  5
156
330
1F
100
AcDbEntity
  8
0
  6
Continuous
 62
     7
370
    15
100
AcDbCircle
 10
-660.7470731707
 20
1443.0989082906
 30
0.0
 40
25.00000000000007
100
AcDbArc
 50
30.0
 51
106.0973005297
  0
ARC
  5
157
330
1F
100
AcDbEntity
  8
0
  6
Continuous
 62
     7
370
    15
100
AcDbCircle
 10
1179.2529268293
 20
1443.0989082906
 30
0.0
 40
24.00000000000016
100
AcDbArc
 50
31.3881664643
 51
148.6118335357
  0
ARC
  5
158
330
1F
100
AcDbEntity
  8
0
  6
Continuous
 62
     7
370
    15
100
AcDbCircle
 10
1179.2529268293
 20
1443.0989082906
 30
0.0
 40
24.00000000000016
100
AcDbArc
 50
211.3881664643
 51
328.6118335357
  0
ARC
  5
159
330
1F
100
AcDbEntity
  8
0
  6
Continuous
 62
     7
370
    15
100
AcDbCircle
 10
1179.2529268293
 20
1443.0989082906
 30
0.0
 40
25.0000000000002
100
AcDbArc
 50
210.0
 51
330.0
  0
ARC
  5
15A
330
1F
100
AcDbEntity
  8
0
  6
Continuous
 62
     7
370
    15
100
AcDbCircle
 10
1179.2529268293
 20
1443.0989082906
 30
0.0
 40
25.00000000000008
100
AcDbArc
 50
30.0
 51
150.0
  0
ARC
  5
15B
330
1F
100
AcDbEntity
  8
0
  6
Continuous
 62
     7
370
    15
100
AcDbCircle
 10
-47.7470731707
 20
1443.0989082906
 30
0.0
 40
23.9999999999999
100
AcDbArc
 50
31.3881664643
 51
148.6118335357
  0
ARC
  5
15C
330
1F
100
AcDbEntity
  8
0
  6
Continuous
 62
     7
370
    15
100
AcDbCircle
 10
-47.7470731707
 20
1443.0989082906
 30
0.0
 40
24.0
100
AcDbArc
 50
211.3881664643
 51
328.6118335357
  0
ARC
  5
15D
330
1F
100
AcDbEntity
  8
0
  6
Continuous
 62
     7
370
    15
100
AcDbCircle
 10
-47.7470731707
 20
1443.0989082906
 30
0.0
 40
25.00000000000009
100
AcDbArc
 50
210.0
 51
330.0
  0
ARC
  5
15E
330
1F
100
AcDbEntity
  8
0
  6
Continuous
 62
     7
370
    15
100
AcDbCircle
 10
-47.7470731707
 20
1443.0989082906
 30
0.0
 40
24.99999999999999
100
AcDbArc
 50
30.0
 51
150.0
  0
ARC
  5
15F
330
1F
100
AcDbEntity
  8
0
  6
Continuous
 62
     7
370
    15
100
AcDbCircle
 10
566.2529268293
 20
1443.0989082906
 30
0.0
 40
23.99999999999999
100
AcDbArc
 50
31.3881664643
 51
148.6118335357
  0
ARC
  5
160
330
1F
100
AcDbEntity
  8
0
  6
Continuous
 62
     7
370
    15
100
AcDbCircle
 10
566.2529268293
 20
1443.0989082906
 30
0.0
 40
23.99999999999985
100
AcDbArc
 50
211.3881664643
 51
328.6118335357
  0
ARC
  5
161
330
1F
100
AcDbEntity
  8
0
  6
Continuous
 62
     7
370
    15
100
AcDbCircle
 10
566.2529268293
 20
1443.0989082906
 30
0.0
 40
24.99999999999997
100
AcDbArc
 50
210.0
 51
330.0
  0
ARC
  5
162
330
1F
100
AcDbEntity
  8
0
  6
Continuous
 62
     7
370
    15
100
AcDbCircle
 10
566.2529268293
 20
1443.0989082906
 30
0.0
 40
25.0
100
AcDbArc
 50
30.0
 51
150.0
  0
LINE
  5
163
330
1F
100
AcDbEntity
  8
0
  6
Continuous
 62
     8
370
    15
100
AcDbLine
 10
36.5290117292
 20
-647.3010440257
 30
0.0
 11
36.5122032193
 21
-651.3009925273
 31
0.0
  0
LINE
  5
164
330
1F
100
AcDbEntity
  8
0
  6
Continuous
 62
     8
370
    15
100
AcDbLine
 10
62.9768443136
 20
-647.3010440257
 30
0.0
 11
62.9936528234
 21
-651.3009925273
 31
0.0
  0
LINE
  5
165
330
1F
100
AcDbEntity
  8
0
  6
Continuous
 62
     7
370
    15
100
AcDbLine
 10
1459.3741499402
 20
-651.3009925273
 30
0.0
 11
1459.0948686519
 21
-635.3011985209
 31
0.0
  0
LINE
  5
166
330
1F
100
AcDbEntity
  8
0
  6
Continuous
 62
     7
370
    15
100
AcDbLine
 10
1454.4770919301
 20
-635.3011985209
 30
0.0
 11
1454.1978106417
 21
-651.3009925273
 31
0.0
  0
LINE
  5
167
330
1F
100
AcDbEntity
  8
0
  6
Continuous
 62
     7
370
    15
100
AcDbLine
 10
1472.4120308229
 20
1423.0989090267
 30
0.0
 11
1480.4120321342
 21
1423.0989090267
 31
0.0
  0
LINE
  5
168
330
1F
100
AcDbEntity
  8
0
  6
Continuous
 62
     7
370
    15
100
AcDbLine
 10
1480.4120321342
 20
1463.0989099953
 30
0.0
 11
1472.4120308229
 21
1463.0989099953
 31
0.0
  0
LINE
  5
169
330
1F
100
AcDbEntity
  8
0
  6
Continuous
 62
     7
370
    15
100
AcDbLine
 10
1441.6120323867
 20
1459.0989093396
 30
0.0
 11
1439.8120321848
 21
1457.2989086721
 31
0.0
  0
LINE
  5
16A
330
1F
100
AcDbEntity
  8
0
  6
Continuous
 62
     7
370
    15
100
AcDbLine
 10
1439.8120321848
 20
1428.8989084873
 30
0.0
 11
1441.6120323867
 21
1427.0989078197
 31
0.0
  0
LINE
  5
16B
330
1F
100
AcDbEntity
  8
0
  6
Continuous
 62
     7
370
    15
100
AcDbLine
 10
1441.6120323867
 20
1427.0989078197
 30
0.0
 11
1472.4120308229
 21
1427.0989078197
 31
0.0
  0
LINE
  5
16C
330
1F
100
AcDbEntity
  8
0
  6
Continuous
 62
     7
370
    15
100
AcDbLine
 10
1472.4120308229
 20
1459.0989093396
 30
0.0
 11
1441.6120323867
 21
1459.0989093396
 31
0.0
  0
LINE
  5
16D
330
1F
100
AcDbEntity
  8
0
  6
Continuous
 62
     7
370
    15
100
AcDbLine
 10
1425.3120326021
 20
1435.5989101443
 30
0.0
 11
1439.8120321848
 21
1435.5989101443
 31
0.0
  0
LINE
  5
16E
330
1F
100
AcDbEntity
  8
0
  6
Continuous
 62
     7
370
    15
100
AcDbLine
 10
1439.8120321848
 20
1450.598907015
 30
0.0
 11
1425.3120326021
 21
1450.598907015
 31
0.0
  0
LINE
  5
16F
330
1F
100
AcDbEntity
  8
0
  6
Continuous
 62
     7
370
    15
100
AcDbLine
 10
1472.9859825739
 20
1496.6989050719
 30
0.0
 11
1472.7859791883
 21
1496.498909137
 31
0.0
  0
LINE
  5
170
330
1F
100
AcDbEntity
  8
0
  6
Continuous
 62
     7
370
    15
100
AcDbLine
 10
1472.7859791883
 20
1466.8989072654
 30
0.0
 11
1472.9859825739
 21
1466.6989113304
 31
0.0
  0
LINE
  5
171
330
1F
100
AcDbEntity
  8
0
  6
Continuous
 62
     7
370
    15
100
AcDbLine
 10
1472.9859825739
 20
1466.6989113304
 30
0.0
 11
1476.5859801837
 21
1466.6989113304
 31
0.0
  0
LINE
  5
172
330
1F
100
AcDbEntity
  8
0
  6
Continuous
 62
     7
370
    15
100
AcDbLine
 10
1476.5859801837
 20
1496.6989050719
 30
0.0
 11
1472.9859825739
 21
1496.6989050719
 31
0.0
  0
LINE
  5
173
330
1F
100
AcDbEntity
  8
0
  6
Continuous
 62
     7
370
    15
100
AcDbLine
 10
1476.5859801837
 20
1466.6989113304
 30
0.0
 11
1476.785979844
 21
1466.8989072654
 31
0.0
  0
LINE
  5
174
330
1F
100
AcDbEntity
  8
0
  6
Continuous
 62
     7
370
    15
100
AcDbLine
 10
1476.785979844
 20
1496.498909137
 30
0.0
 11
1476.5859801837
 21
1496.6989050719
 31
0.0
  0
ARC
  5
175
330
1F
100
AcDbEntity
  8
0
  6
Continuous
 62
     7
370
    15
100
AcDbCircle
 10
1480.6120321613
 20
1428.2989082906
 30
0.0
 40
0.2000000000000455
100
AcDbArc
 50
180.0
 51
270.0
  0
ARC
  5
176
330
1F
100
AcDbEntity
  8
0
  6
Continuous
 62
     7
370
    15
100
AcDbCircle
 10
1480.6120321613
 20
1457.8989082906
 30
0.0
 40
0.2000000000000455
100
AcDbArc
 50
90.0
 51
180.0
  0
LINE
  5
177
330
1F
100
AcDbEntity
  8
0
  6
Continuous
 62
     7
370
    15
100
AcDbLine
 10
1482.3291894563
 20
1458.0989073131
 30
0.0
 11
1480.6120317944
 21
1458.0989073131
 31
0.0
  0
LINE
  5
178
330
1F
100
AcDbEntity
  8
0
  6
Continuous
 62
     7
370
    15
100
AcDbLine
 10
1480.6120317944
 20
1428.0989079836
 30
0.0
 11
1482.3291894563
 21
1428.0989079836
 31
0.0
  0
ARC
  5
179
330
1F
100
AcDbEntity
  8
0
  6
Continuous
 62
     7
370
    15
100
AcDbCircle
 10
1482.3291894488
 20
1457.8989082906
 30
0.0
 40
0.2000000000001302
100
AcDbArc
 50
45.0
 51
90.0
  0
ARC
  5
17A
330
1F
100
AcDbEntity
  8
0
  6
Continuous
 62
     7
370
    15
100
AcDbCircle
 10
1482.3291894488
 20
1428.2989082906
 30
0.0
 40
0.2000000000001302
100
AcDbArc
 50
270.0
 51
315.0
  0
LINE
  5
17B
330
1F
100
AcDbEntity
  8
0
  6
Continuous
 62
     7
370
    15
100
AcDbLine
 10
1482.4706126519
 20
1428.1574863109
 30
0.0
 11
1484.3534525999
 21
1430.0403299841
 31
0.0
  0
LINE
  5
17C
330
1F
100
AcDbEntity
  8
0
  6
Continuous
 62
     7
370
    15
100
AcDbLine
 10
1484.3534525999
 20
1456.1574871752
 30
0.0
 11
1482.4706126519
 21
1458.0403308484
 31
0.0
  0
ARC
  5
17D
330
1F
100
AcDbEntity
  8
0
  6
Continuous
 62
     7
370
    15
100
AcDbCircle
 10
1484.2120321613
 20
1430.1817510031
 30
0.0
 40
0.2000000000000455
100
AcDbArc
 50
315.0
 51
0.0
  0
ARC
  5
17E
330
1F
100
AcDbEntity
  8
0
  6
Continuous
 62
     7
370
    15
100
AcDbCircle
 10
1484.2120321613
 20
1456.0160655781
 30
0.0
 40
0.2000000000000455
100
AcDbArc
 50
0.0
 51
45.0
  0
ARC
  5
17F
330
1F
100
AcDbEntity
  8
0
  6
Continuous
 62
     7
370
    15
100
AcDbCircle
 10
1434.8688234505
 20
1277.8989082906
 30
0.0
 40
0.2000000000001302
100
AcDbArc
 50
225.0
 51
270.0
  0
ARC
  5
180
330
1F
100
AcDbEntity
  8
0
  6
Continuous
 62
     7
370
    15
100
AcDbCircle
 10
1434.8688234505
 20
1307.4989082906
 30
0.0
 40
0.1999999999999695
100
AcDbArc
 50
90.0
 51
135.0000000001
  0
ARC
  5
181
330
1F
100
AcDbEntity
  8
0
  6
Continuous
 62
     7
370
    15
100
AcDbCircle
 10
1436.585980738
 20
1307.4989082906
 30
0.0
 40
0.1999999999998181
100
AcDbArc
 50
0.0
 51
90.0
  0
ARC
  5
182
330
1F
100
AcDbEntity
  8
0
  6
Continuous
 62
     7
370
    15
100
AcDbCircle
 10
1436.585980738
 20
1277.8989082906
 30
0.0
 40
0.2000000000000455
100
AcDbArc
 50
270.0
 51
0.0
  0
LINE
  5
183
330
1F
100
AcDbEntity
  8
0
  6
Continuous
 62
     7
370
    15
100
AcDbLine
 10
1434.8688234159
 20
1277.6989082906
 30
0.0
 11
1436.5859807431
 21
1277.6989082906
 31
0.0
  0
LINE
  5
184
330
1F
100
AcDbEntity
  8
0
  6
Continuous
 62
     7
370
    15
100
AcDbLine
 10
1436.5859807431
 20
1307.6989094827
 30
0.0
 11
1434.8688234159
 21
1307.6989094827
 31
0.0
  0
LINE
  5
185
330
1F
100
AcDbEntity
  8
0
  6
Continuous
 62
     7
370
    15
100
AcDbLine
 10
1434.7274020829
 20
1307.640333018
 30
0.0
 11
1432.844559341
 21
1305.7574893448
 31
0.0
  0
LINE
  5
186
330
1F
100
AcDbEntity
  8
0
  6
Continuous
 62
     7
370
    15
100
AcDbLine
 10
1432.844559341
 20
1279.6403284285
 30
0.0
 11
1434.7274020829
 21
1277.7574847552
 31
0.0
  0
ARC
  5
187
330
1F
100
AcDbEntity
  8
0
  6
Continuous
 62
     7
370
    15
100
AcDbCircle
 10
1432.985980738
 20
1305.6160655781
 30
0.0
 40
0.2000000000000455
100
AcDbArc
 50
135.0
 51
180.0
  0
ARC
  5
188
330
1F
100
AcDbEntity
  8
0
  6
Continuous
 62
     7
370
    15
100
AcDbCircle
 10
1432.985980738
 20
1279.7817510031
 30
0.0
 40
0.2000000000001302
100
AcDbArc
 50
180.0
 51
225.0
  0
ARC
  5
189
330
1F
100
AcDbEntity
  8
0
  6
Continuous
 62
     7
370
    15
100
AcDbCircle
 10
1434.8688234505
 20
1332.8989082906
 30
0.0
 40
0.200000000000291
100
AcDbArc
 50
225.0
 51
270.0
  0
ARC
  5
18A
330
1F
100
AcDbEntity
  8
0
  6
Continuous
 62
     7
370
    15
100
AcDbCircle
 10
1434.8688234505
 20
1362.4989082906
 30
0.0
 40
0.2000000000001302
100
AcDbArc
 50
90.0
 51
135.0
  0
LINE
  5
18B
330
1F
100
AcDbEntity
  8
0
  6
Continuous
 62
     7
370
    15
100
AcDbLine
 10
1434.8688234159
 20
1332.6989079926
 30
0.0
 11
1436.5859807431
 21
1332.6989079926
 31
0.0
  0
LINE
  5
18C
330
1F
100
AcDbEntity
  8
0
  6
Continuous
 62
     7
370
    15
100
AcDbLine
 10
1436.5859807431
 20
1362.6989091847
 30
0.0
 11
1434.8688234159
 21
1362.6989091847
 31
0.0
  0
ARC
  5
18D
330
1F
100
AcDbEntity
  8
0
  6
Continuous
 62
     7
370
    15
100
AcDbCircle
 10
1436.585980738
 20
1362.4989082906
 30
0.0
 40
0.2000000000000455
100
AcDbArc
 50
0.0
 51
90.0
  0
ARC
  5
18E
330
1F
100
AcDbEntity
  8
0
  6
Continuous
 62
     7
370
    15
100
AcDbCircle
 10
1436.585980738
 20
1332.8989082906
 30
0.0
 40
0.2000000000000455
100
AcDbArc
 50
270.0
 51
0.0
  0
LINE
  5
18F
330
1F
100
AcDbEntity
  8
0
  6
Continuous
 62
     7
370
    15
100
AcDbLine
 10
1434.7274020829
 20
1362.6403289947
 30
0.0
 11
1432.844559341
 21
1360.7574853215
 31
0.0
  0
LINE
  5
190
330
1F
100
AcDbEntity
  8
0
  6
Continuous
 62
     7
370
    15
100
AcDbLine
 10
1432.844559341
 20
1334.6403281304
 30
0.0
 11
1434.7274020829
 21
1332.7574844572
 31
0.0
  0
ARC
  5
191
330
1F
100
AcDbEntity
  8
0
  6
Continuous
 62
     7
370
    15
100
AcDbCircle
 10
1432.985980738
 20
1360.6160655781
 30
0.0
 40
0.2000000000000455
100
AcDbArc
 50
135.0
 51
180.0
  0
ARC
  5
192
330
1F
100
AcDbEntity
  8
0
  6
Continuous
 62
     7
370
    15
100
AcDbCircle
 10
1432.985980738
 20
1334.7817510031
 30
0.0
 40
0.2000000000000455
100
AcDbArc
 50
180.0
 51
225.0
  0
LINE
  5
193
330
1F
100
AcDbEntity
  8
0
  6
Continuous
 62
     7
370
    15
100
AcDbLine
 10
1485.7859794565
 20
1362.6989091847
 30
0.0
 11
1482.7859808274
 21
1362.6989091847
 31
0.0
  0
LINE
  5
194
330
1F
100
AcDbEntity
  8
0
  6
Continuous
 62
     7
370
    15
100
AcDbLine
 10
1482.7859808274
 20
1332.6989079926
 30
0.0
 11
1485.7859794565
 21
1332.6989079926
 31
0.0
  0
LINE
  5
195
330
1F
100
AcDbEntity
  8
0
  6
Continuous
 62
     7
370
    15
100
AcDbLine
 10
1485.7859794565
 20
1332.6989079926
 30
0.0
 11
1487.7859797844
 21
1334.6989045951
 31
0.0
  0
LINE
  5
196
330
1F
100
AcDbEntity
  8
0
  6
Continuous
 62
     7
370
    15
100
AcDbLine
 10
1487.7859797844
 20
1360.6989088568
 30
0.0
 11
1485.7859794565
 21
1362.6989091847
 31
0.0
  0
LINE
  5
197
330
1F
100
AcDbEntity
  8
0
  6
Continuous
 62
     7
370
    15
100
AcDbLine
 10
1485.7859794565
 20
1277.6989082906
 30
0.0
 11
1487.7859797844
 21
1279.6989048931
 31
0.0
  0
LINE
  5
198
330
1F
100
AcDbEntity
  8
0
  6
Continuous
 62
     7
370
    15
100
AcDbLine
 10
1487.7859797844
 20
1305.6989054296
 30
0.0
 11
1485.7859794565
 21
1307.6989094827
 31
0.0
  0
LINE
  5
199
330
1F
100
AcDbEntity
  8
0
  6
Continuous
 62
     7
370
    15
100
AcDbLine
 10
1485.7859794565
 20
1307.6989094827
 30
0.0
 11
1482.7859808274
 21
1307.6989094827
 31
0.0
  0
LINE
  5
19A
330
1F
100
AcDbEntity
  8
0
  6
Continuous
 62
     7
370
    15
100
AcDbLine
 10
1482.7859808274
 20
1277.6989082906
 30
0.0
 11
1485.7859794565
 21
1277.6989082906
 31
0.0
  0
LINE
  5
19B
330
1F
100
AcDbEntity
  8
0
  6
Continuous
 62
     7
370
    15
100
AcDbLine
 10
1485.7859794565
 20
1436.6989101383
 30
0.0
 11
1484.4120327898
 21
1436.6989101383
 31
0.0
  0
LINE
  5
19C
330
1F
100
AcDbEntity
  8
0
  6
Continuous
 62
     7
370
    15
100
AcDbLine
 10
1482.7859808274
 20
1406.6989084806
 30
0.0
 11
1485.7859794565
 21
1406.6989084806
 31
0.0
  0
LINE
  5
19D
330
1F
100
AcDbEntity
  8
0
  6
Continuous
 62
     7
370
    15
100
AcDbLine
 10
1485.7859794565
 20
1406.6989084806
 30
0.0
 11
1487.7859797844
 21
1408.6989083427
 31
0.0
  0
LINE
  5
19E
330
1F
100
AcDbEntity
  8
0
  6
Continuous
 62
     7
370
    15
100
AcDbLine
 10
1487.7859797844
 20
1434.6989098105
 30
0.0
 11
1485.7859794565
 21
1436.6989101383
 31
0.0
  0
LINE
  5
19F
330
1F
100
AcDbEntity
  8
0
  6
Continuous
 62
     7
370
    15
100
AcDbLine
 10
1485.7859794565
 20
1466.6989113304
 30
0.0
 11
1487.7859797844
 21
1468.698907933
 31
0.0
  0
LINE
  5
1A0
330
1F
100
AcDbEntity
  8
0
  6
Continuous
 62
     7
370
    15
100
AcDbLine
 10
1487.7859797844
 20
1494.6989084694
 30
0.0
 11
1485.7859794565
 21
1496.6989050719
 31
0.0
  0
LINE
  5
1A1
330
1F
100
AcDbEntity
  8
0
  6
Continuous
 62
     7
370
    15
100
AcDbLine
 10
1485.7859794565
 20
1496.6989050719
 30
0.0
 11
1482.7859808274
 21
1496.6989050719
 31
0.0
  0
LINE
  5
1A2
330
1F
100
AcDbEntity
  8
0
  6
Continuous
 62
     7
370
    15
100
AcDbLine
 10
1482.7859808274
 20
1466.6989113304
 30
0.0
 11
1485.7859794565
 21
1466.6989113304
 31
0.0
  0
LINE
  5
1A3
330
1F
100
AcDbEntity
  8
0
  6
Continuous
 62
     7
370
    15
100
AcDbLine
 10
1447.7859806784
 20
1414.6989083949
 30
0.0
 11
1448.7859808423
 21
1413.698908231
 31
0.0
  0
LINE
  5
1A4
330
1F
100
AcDbEntity
  8
0
  6
Continuous
 62
     7
370
    15
100
AcDbLine
 10
1448.7859808423
 20
1413.698908231
 30
0.0
 11
1476.5859801837
 21
1413.698908231
 31
0.0
  0
LINE
  5
1A5
330
1F
100
AcDbEntity
  8
0
  6
Continuous
 62
     7
370
    15
100
AcDbLine
 10
1476.5859801837
 20
1413.698908231
 30
0.0
 11
1476.785979844
 21
1413.8989078912
 31
0.0
  0
LINE
  5
1A6
330
1F
100
AcDbEntity
  8
0
  6
Continuous
 62
     7
370
    15
100
AcDbLine
 10
1443.8688234941
 20
1466.6989113304
 30
0.0
 11
1444.5859805264
 21
1466.6989113304
 31
0.0
  0
LINE
  5
1A7
330
1F
100
AcDbEntity
  8
0
  6
Continuous
 62
     7
370
    15
100
AcDbLine
 10
1444.5859805264
 20
1496.6989050719
 30
0.0
 11
1443.8688234941
 21
1496.6989050719
 31
0.0
  0
ARC
  5
1A8
330
1F
100
AcDbEntity
  8
0
  6
Continuous
 62
     7
370
    15
100
AcDbCircle
 10
1444.585980738
 20
1496.4989082906
 30
0.0
 40
0.2000000000000455
100
AcDbArc
 50
0.0
 51
90.0
  0
ARC
  5
1A9
330
1F
100
AcDbEntity
  8
0
  6
Continuous
 62
     7
370
    15
100
AcDbCircle
 10
1444.585980738
 20
1466.8989082906
 30
0.0
 40
0.2000000000002728
100
AcDbArc
 50
270.0
 51
0.0
  0
ARC
  5
1AA
330
1F
100
AcDbEntity
  8
0
  6
Continuous
 62
     7
370
    15
100
AcDbCircle
 10
1443.8688234505
 20
1466.8989082906
 30
0.0
 40
0.2000000000002728
100
AcDbArc
 50
225.0
 51
270.0
  0
ARC
  5
1AB
330
1F
100
AcDbEntity
  8
0
  6
Continuous
 62
     7
370
    15
100
AcDbCircle
 10
1443.8688234505
 20
1496.4989082906
 30
0.0
 40
0.2000000000000455
100
AcDbArc
 50
90.0
 51
135.0
  0
LINE
  5
1AC
330
1F
100
AcDbEntity
  8
0
  6
Continuous
 62
     7
370
    15
100
AcDbLine
 10
1443.7274021611
 20
1496.6403286073
 30
0.0
 11
1441.8445594192
 21
1494.757484934
 31
0.0
  0
LINE
  5
1AD
330
1F
100
AcDbEntity
  8
0
  6
Continuous
 62
     7
370
    15
100
AcDbLine
 10
1441.8445594192
 20
1468.6403314683
 30
0.0
 11
1443.7274021611
 21
1466.7574877951
 31
0.0
  0
ARC
  5
1AE
330
1F
100
AcDbEntity
  8
0
  6
Continuous
 62
     7
370
    15
100
AcDbCircle
 10
1441.985980738
 20
1494.6160655781
 30
0.0
 40
0.200000000000291
100
AcDbArc
 50
135.0
 51
180.0
  0
ARC
  5
1AF
330
1F
100
AcDbEntity
  8
0
  6
Continuous
 62
     7
370
    15
100
AcDbCircle
 10
1441.985980738
 20
1468.7817510031
 30
0.0
 40
0.200000000000291
100
AcDbArc
 50
180.0
 51
225.0
  0
LINE
  5
1B0
330
1F
100
AcDbEntity
  8
0
  6
Continuous
 62
     7
370
    15
100
AcDbLine
 10
1445.2859812
 20
1491.4489056084
 30
0.0
 11
1444.785981118
 21
1491.4489056084
 31
0.0
  0
LINE
  5
1B1
330
1F
100
AcDbEntity
  8
0
  6
Continuous
 62
     7
370
    15
100
AcDbLine
 10
1444.785981118
 20
1471.948910794
 30
0.0
 11
1445.2859812
 21
1471.948910794
 31
0.0
  0
LINE
  5
1B2
330
1F
100
AcDbEntity
  8
0
  6
Continuous
 62
     7
370
    15
100
AcDbLine
 10
1466.2859809168
 20
1510.698911092
 30
0.0
 11
1464.7859816023
 21
1510.698911092
 31
0.0
  0
LINE
  5
1B3
330
1F
100
AcDbEntity
  8
0
  6
Continuous
 62
     7
370
    15
100
AcDbLine
 10
1446.7859805145
 20
1510.698911092
 30
0.0
 11
1445.2859812
 21
1510.698911092
 31
0.0
  0
LINE
  5
1B4
330
1F
100
AcDbEntity
  8
0
  6
Continuous
 62
     7
370
    15
100
AcDbLine
 10
1447.8064092391
 20
1510.698911092
 30
0.0
 11
1446.7859805145
 21
1510.698911092
 31
0.0
  0
ARC
  5
1B5
330
1F
100
AcDbEntity
  8
0
  6
Continuous
 62
     7
370
    15
100
AcDbCircle
 10
1455.8120321613
 20
1520.2989082906
 30
0.0
 40
12.49999999999974
100
AcDbArc
 50
230.1746287392
 51
309.8253712608
  0
LINE
  5
1B6
330
1F
100
AcDbEntity
  8
0
  6
Continuous
 62
     7
370
    15
100
AcDbLine
 10
1464.7859816023
 20
1510.698911092
 30
0.0
 11
1463.8176557191
 21
1510.698911092
 31
0.0
  0
LINE
  5
1B7
330
1F
100
AcDbEntity
  8
0
  6
Continuous
 62
     7
370
    15
100
AcDbLine
 10
1481.4359803268
 20
1277.6989082906
 30
0.0
 11
1482.7859808274
 21
1277.6989082906
 31
0.0
  0
LINE
  5
1B8
330
1F
100
AcDbEntity
  8
0
  6
Continuous
 62
     7
370
    15
100
AcDbLine
 10
1476.785979844
 20
1277.6989082906
 30
0.0
 11
1478.1566035517
 21
1277.6989082906
 31
0.0
  0
LINE
  5
1B9
330
1F
100
AcDbEntity
  8
0
  6
Continuous
 62
     7
370
    15
100
AcDbLine
 10
1482.7859808274
 20
1496.6989050719
 30
0.0
 11
1476.785979844
 21
1496.6989050719
 31
0.0
  0
LINE
  5
1BA
330
1F
100
AcDbEntity
  8
0
  6
Continuous
 62
     7
370
    15
100
AcDbLine
 10
1472.4859815606
 20
1496.6989050719
 30
0.0
 11
1467.0859814205
 21
1496.6989050719
 31
0.0
  0
LINE
  5
1BB
330
1F
100
AcDbEntity
  8
0
  6
Continuous
 62
     7
370
    15
100
AcDbLine
 10
1467.0859814205
 20
1466.6989113304
 30
0.0
 11
1472.4859815606
 21
1466.6989113304
 31
0.0
  0
LINE
  5
1BC
330
1F
100
AcDbEntity
  8
0
  6
Continuous
 62
     7
370
    15
100
AcDbLine
 10
1467.0859814205
 20
1496.6989050719
 30
0.0
 11
1466.7859800675
 21
1496.3989074442
 31
0.0
  0
LINE
  5
1BD
330
1F
100
AcDbEntity
  8
0
  6
Continuous
 62
     7
370
    15
100
AcDbLine
 10
1466.7859800675
 20
1466.9989089582
 30
0.0
 11
1467.0859814205
 21
1466.6989113304
 31
0.0
  0
LINE
  5
1BE
330
1F
100
AcDbEntity
  8
0
  6
Continuous
 62
     7
370
    15
100
AcDbLine
 10
1472.4859815606
 20
1466.6989113304
 30
0.0
 11
1472.7859791883
 21
1466.9989089582
 31
0.0
  0
LINE
  5
1BF
330
1F
100
AcDbEntity
  8
0
  6
Continuous
 62
     7
370
    15
100
AcDbLine
 10
1472.7859791883
 20
1496.3989074442
 30
0.0
 11
1472.4859815606
 21
1496.6989050719
 31
0.0
  0
LINE
  5
1C0
330
1F
100
AcDbEntity
  8
0
  6
Continuous
 62
     7
370
    15
100
AcDbLine
 10
1466.7859800675
 20
1491.4489056084
 30
0.0
 11
1466.2859809168
 21
1491.4489056084
 31
0.0
  0
LINE
  5
1C1
330
1F
100
AcDbEntity
  8
0
  6
Continuous
 62
     7
370
    15
100
AcDbLine
 10
1466.2859809168
 20
1471.948910794
 30
0.0
 11
1466.7859800675
 21
1471.948910794
 31
0.0
  0
LINE
  5
1C2
330
1F
100
AcDbEntity
  8
0
  6
Continuous
 62
     7
370
    15
100
AcDbLine
 10
1422.3120321103
 20
1418.0989082071
 30
0.0
 11
1424.3120324381
 21
1418.0989082071
 31
0.0
  0
LINE
  5
1C3
330
1F
100
AcDbEntity
  8
0
  6
Continuous
 62
     7
370
    15
100
AcDbLine
 10
1424.3120324381
 20
1468.0989052269
 30
0.0
 11
1422.3120321103
 21
1468.0989052269
 31
0.0
  0
LINE
  5
1C4
330
1F
100
AcDbEntity
  8
0
  6
Continuous
 62
     7
370
    15
100
AcDbLine
 10
1424.3120324381
 20
1418.0989082071
 30
0.0
 11
1425.3120326021
 21
1419.098908371
 31
0.0
  0
LINE
  5
1C5
330
1F
100
AcDbEntity
  8
0
  6
Continuous
 62
     7
370
    15
100
AcDbLine
 10
1425.3120326021
 20
1467.0989106509
 30
0.0
 11
1424.3120324381
 21
1468.0989052269
 31
0.0
  0
LINE
  5
1C6
330
1F
100
AcDbEntity
  8
0
  6
Continuous
 62
     7
370
    15
100
AcDbLine
 10
1442.7859807902
 20
-651.3009925273
 30
0.0
 11
1442.7859807902
 21
-655.3011794475
 31
0.0
  0
LINE
  5
1C7
330
1F
100
AcDbEntity
  8
0
  6
Continuous
 62
     7
370
    15
100
AcDbLine
 10
1442.7859807902
 20
-651.3009925273
 30
0.0
 11
1470.7859825858
 21
-651.3009925273
 31
0.0
  0
LINE
  5
1C8
330
1F
100
AcDbEntity
  8
0
  6
Continuous
 62
     7
370
    15
100
AcDbLine
 10
1470.7859825858
 20
-651.3009925273
 30
0.0
 11
1470.7859825858
 21
-655.3011794475
 31
0.0
  0
LINE
  5
1C9
330
1F
100
AcDbEntity
  8
0
  6
Continuous
 62
     7
370
    15
100
AcDbLine
 10
1442.7859807902
 20
-655.3011794475
 30
0.0
 11
1470.7859825858
 21
-655.3011794475
 31
0.0
  0
LINE
  5
1CA
330
1F
100
AcDbEntity
  8
0
  6
Continuous
 62
     7
370
    15
100
AcDbLine
 10
1456.0864583173
 20
-635.3011985209
 30
0.0
 11
1455.815391294
 21
-651.3009925273
 31
0.0
  0
LINE
  5
1CB
330
1F
100
AcDbEntity
  8
0
  6
Continuous
 62
     7
370
    15
100
AcDbLine
 10
1456.0864583173
 20
-635.3011985209
 30
0.0
 11
1457.4855022647
 21
-635.3011985209
 31
0.0
  0
LINE
  5
1CC
330
1F
100
AcDbEntity
  8
0
  6
Continuous
 62
     7
370
    15
100
AcDbLine
 10
1457.4855022647
 20
-635.3011985209
 30
0.0
 11
1457.756569288
 21
-651.3009925273
 31
0.0
  0
LINE
  5
1CD
330
1F
100
AcDbEntity
  8
0
  6
Continuous
 62
     7
370
    15
100
AcDbLine
 10
1457.4855022647
 20
-635.3011985209
 30
0.0
 11
1459.0948686519
 21
-635.3011985209
 31
0.0
  0
LINE
  5
1CE
330
1F
100
AcDbEntity
  8
0
  6
Continuous
 62
     7
370
    15
100
AcDbLine
 10
1454.4770919301
 20
-635.3011985209
 30
0.0
 11
1456.0864583173
 21
-635.3011985209
 31
0.0
  0
LINE
  5
1CF
330
1F
100
AcDbEntity
  8
0
  6
Continuous
 62
     7
370
    15
100
AcDbLine
 10
1480.4120321342
 20
1463.0989099953
 30
0.0
 11
1480.4120321342
 21
1423.0989090267
 31
0.0
  0
LINE
  5
1D0
330
1F
100
AcDbEntity
  8
0
  6
Continuous
 62
     7
370
    15
100
AcDbLine
 10
1472.4120308229
 20
1463.0989099953
 30
0.0
 11
1472.4120308229
 21
1423.0989090267
 31
0.0
  0
LINE
  5
1D1
330
1F
100
AcDbEntity
  8
0
  6
Continuous
 62
     7
370
    15
100
AcDbLine
 10
1441.6120323867
 20
1459.0989093396
 30
0.0
 11
1441.6120323867
 21
1427.0989078197
 31
0.0
  0
LINE
  5
1D2
330
1F
100
AcDbEntity
  8
0
  6
Continuous
 62
     7
370
    15
100
AcDbLine
 10
1439.8120321848
 20
1428.8989084873
 30
0.0
 11
1439.8120321848
 21
1457.2989086721
 31
0.0
  0
LINE
  5
1D3
330
1F
100
AcDbEntity
  8
0
  6
Continuous
 62
     7
370
    15
100
AcDbLine
 10
1443.2120319971
 20
1443.098906717
 30
0.0
 11
1443.4175627821
 21
1444.5190954122
 31
0.0
  0
SPLINE
  5
1D4
330
1F
100
AcDbEntity
  8
0
  6
Continuous
 62
     7
370
    15
100
AcDbSpline
210
0.0
220
0.0
230
1.0
 70
     8
 71
     3
 72
     9
 73
     5
 74
     0
 42
0.00000001
 43
0.00000001
 40
0.0
 40
0.0
 40
0.0
 40
0.0
 40
0.5772355642147848
 40
1.0
 40
1.0
 40
1.0
 40
1.0
 10
1468.28339216791
 20
1443.234544536786
 30
0.0
 10
1468.333069471443
 20
1442.588739777767
 30
0.0
 10
1468.419130183245
 20
1441.46995084816
 30
0.0
 10
1468.068751180185
 20
1440.444670533387
 30
0.0
 10
1467.920623398645
 20
1440.01121847959
 30
0.0
  0
SPLINE
  5
1D5
330
1F
100
AcDbEntity
  8
0
  6
Continuous
 62
     7
370
    15
100
AcDbSpline
210
0.0
220
0.0
230
1.0
 70
     8
 71
     3
 72
     9
 73
     5
 74
     0
 42
0.00000001
 43
0.00000001
 40
0.0
 40
0.0
 40
0.0
 40
0.0
 40
0.4159477433799397
 40
1.0
 40
1.0
 40
1.0
 40
1.0
 10
1443.583508166744
 20
1440.516557833867
 30
0.0
 10
1443.476617163151
 20
1440.860353305425
 30
0.0
 10
1443.219635354031
 20
1441.686888554213
 30
0.0
 10
1443.21483541329
 20
1442.578284754626
 30
0.0
 10
1443.212031997068
 20
1443.098906717019
 30
0.0
  0
CIRCLE
  5
1D6
330
1F
100
AcDbEntity
  8
0
  6
Continuous
 62
     7
370
    15
100
AcDbCircle
 10
1455.8120321613
 20
1443.0989082906
 30
0.0
 40
12.49999999999994
  0
CIRCLE
  5
1D7
330
1F
100
AcDbEntity
  8
0
  6
Continuous
 62
     7
370
    15
100
AcDbCircle
 10
1455.8120321613
 20
1443.0989082906
 30
0.0
 40
12.29999999999989
  0
LINE
  5
1D8
330
1F
100
AcDbEntity
  8
0
  6
Continuous
 62
     7
370
    15
100
AcDbLine
 10
1472.9859825739
 20
1469.1766093585
 30
0.0
 11
1472.9859825739
 21
1466.6989113304
 31
0.0
  0
LINE
  5
1D9
330
1F
100
AcDbEntity
  8
0
  6
Continuous
 62
     7
370
    15
100
AcDbLine
 10
1472.9859825739
 20
1496.6989050719
 30
0.0
 11
1472.9859825739
 21
1469.1766093585
 31
0.0
  0
LINE
  5
1DA
330
1F
100
AcDbEntity
  8
0
  6
Continuous
 62
     7
370
    15
100
AcDbLine
 10
1472.7859791883
 20
1469.3435768697
 30
0.0
 11
1472.7859791883
 21
1496.498909137
 31
0.0
  0
LINE
  5
1DB
330
1F
100
AcDbEntity
  8
0
  6
Continuous
 62
     7
370
    15
100
AcDbLine
 10
1472.7859791883
 20
1466.8989072654
 30
0.0
 11
1472.7859791883
 21
1469.3435768697
 31
0.0
  0
LINE
  5
1DC
330
1F
100
AcDbEntity
  8
0
  6
Continuous
 62
     7
370
    15
100
AcDbLine
 10
1476.5859801837
 20
1469.1766093585
 30
0.0
 11
1476.5859801837
 21
1496.6989050719
 31
0.0
  0
LINE
  5
1DD
330
1F
100
AcDbEntity
  8
0
  6
Continuous
 62
     7
370
    15
100
AcDbLine
 10
1476.5859801837
 20
1466.6989113304
 30
0.0
 11
1476.5859801837
 21
1469.1766093585
 31
0.0
  0
LINE
  5
1DE
330
1F
100
AcDbEntity
  8
0
  6
Continuous
 62
     7
370
    15
100
AcDbLine
 10
1484.4120327898
 20
1438.1510022196
 30
0.0
 11
1484.4120327898
 21
1430.1817513171
 31
0.0
  0
LINE
  5
1DF
330
1F
100
AcDbEntity
  8
0
  6
Continuous
 62
     7
370
    15
100
AcDbLine
 10
1484.4120327898
 20
1456.0160639796
 30
0.0
 11
1484.4120327898
 21
1438.1510022196
 31
0.0
  0
LINE
  5
1E0
330
1F
100
AcDbEntity
  8
0
  6
Continuous
 62
     7
370
    15
100
AcDbLine
 10
1432.785980548
 20
1282.9172427866
 30
0.0
 11
1432.785980548
 21
1305.6160624239
 31
0.0
  0
LINE
  5
1E1
330
1F
100
AcDbEntity
  8
0
  6
Continuous
 62
     7
370
    15
100
AcDbLine
 10
1432.785980548
 20
1279.7817478988
 30
0.0
 11
1432.785980548
 21
1282.9172427866
 31
0.0
  0
LINE
  5
1E2
330
1F
100
AcDbEntity
  8
0
  6
Continuous
 62
     7
370
    15
100
AcDbLine
 10
1432.785980548
 20
1334.7817476008
 30
0.0
 11
1432.785980548
 21
1360.6160658512
 31
0.0
  0
LINE
  5
1E3
330
1F
100
AcDbEntity
  8
0
  6
Continuous
 62
     7
370
    15
100
AcDbLine
 10
1485.7859794565
 20
1335.0802625629
 30
0.0
 11
1485.7859794565
 21
1362.6989091847
 31
0.0
  0
LINE
  5
1E4
330
1F
100
AcDbEntity
  8
0
  6
Continuous
 62
     7
370
    15
100
AcDbLine
 10
1485.7859794565
 20
1332.6989079926
 30
0.0
 11
1485.7859794565
 21
1335.0802625629
 31
0.0
  0
LINE
  5
1E5
330
1F
100
AcDbEntity
  8
0
  6
Continuous
 62
     7
370
    15
100
AcDbLine
 10
1487.7859797844
 20
1336.7627526733
 30
0.0
 11
1487.7859797844
 21
1334.6989045951
 31
0.0
  0
LINE
  5
1E6
330
1F
100
AcDbEntity
  8
0
  6
Continuous
 62
     7
370
    15
100
AcDbLine
 10
1487.7859797844
 20
1360.6989088568
 30
0.0
 11
1487.7859797844
 21
1336.7627526733
 31
0.0
  0
LINE
  5
1E7
330
1F
100
AcDbEntity
  8
0
  6
Continuous
 62
     7
370
    15
100
AcDbLine
 10
1485.7859794565
 20
1292.0191626164
 30
0.0
 11
1485.7859794565
 21
1307.6989094827
 31
0.0
  0
LINE
  5
1E8
330
1F
100
AcDbEntity
  8
0
  6
Continuous
 62
     7
370
    15
100
AcDbLine
 10
1485.7859794565
 20
1277.6989082906
 30
0.0
 11
1485.7859794565
 21
1292.0191626164
 31
0.0
  0
LINE
  5
1E9
330
1F
100
AcDbEntity
  8
0
  6
Continuous
 62
     7
370
    15
100
AcDbLine
 10
1487.7859797844
 20
1292.1097989294
 30
0.0
 11
1487.7859797844
 21
1279.6989048931
 31
0.0
  0
LINE
  5
1EA
330
1F
100
AcDbEntity
  8
0
  6
Continuous
 62
     7
370
    15
100
AcDbLine
 10
1487.7859797844
 20
1305.6989054296
 30
0.0
 11
1487.7859797844
 21
1292.1097989294
 31
0.0
  0
LINE
  5
1EB
330
1F
100
AcDbEntity
  8
0
  6
Continuous
 62
     7
370
    15
100
AcDbLine
 10
1482.7859808274
 20
1292.0191626164
 30
0.0
 11
1482.7859808274
 21
1292.6989088866
 31
0.0
  0
LINE
  5
1EC
330
1F
100
AcDbEntity
  8
0
  6
Continuous
 62
     7
370
    15
100
AcDbLine
 10
1482.7859808274
 20
1277.6989082906
 30
0.0
 11
1482.7859808274
 21
1292.0191626164
 31
0.0
  0
LINE
  5
1ED
330
1F
100
AcDbEntity
  8
0
  6
Continuous
 62
     7
370
    15
100
AcDbLine
 10
1485.7859794565
 20
1421.0191632721
 30
0.0
 11
1485.7859794565
 21
1436.6989101383
 31
0.0
  0
LINE
  5
1EE
330
1F
100
AcDbEntity
  8
0
  6
Continuous
 62
     7
370
    15
100
AcDbLine
 10
1485.7859794565
 20
1406.6989084806
 30
0.0
 11
1485.7859794565
 21
1421.0191632721
 31
0.0
  0
LINE
  5
1EF
330
1F
100
AcDbEntity
  8
0
  6
Continuous
 62
     7
370
    15
100
AcDbLine
 10
1487.7859797844
 20
1421.1097958598
 30
0.0
 11
1487.7859797844
 21
1408.6989083427
 31
0.0
  0
LINE
  5
1F0
330
1F
100
AcDbEntity
  8
0
  6
Continuous
 62
     7
370
    15
100
AcDbLine
 10
1487.7859797844
 20
1434.6989098105
 30
0.0
 11
1487.7859797844
 21
1421.1097958598
 31
0.0
  0
LINE
  5
1F1
330
1F
100
AcDbEntity
  8
0
  6
Continuous
 62
     7
370
    15
100
AcDbLine
 10
1485.7859794565
 20
1481.0191656563
 30
0.0
 11
1485.7859794565
 21
1496.6989050719
 31
0.0
  0
LINE
  5
1F2
330
1F
100
AcDbEntity
  8
0
  6
Continuous
 62
     7
370
    15
100
AcDbLine
 10
1485.7859794565
 20
1466.6989113304
 30
0.0
 11
1485.7859794565
 21
1481.0191656563
 31
0.0
  0
LINE
  5
1F3
330
1F
100
AcDbEntity
  8
0
  6
Continuous
 62
     7
370
    15
100
AcDbLine
 10
1487.7859797844
 20
1481.1097945187
 30
0.0
 11
1487.7859797844
 21
1468.698907933
 31
0.0
  0
LINE
  5
1F4
330
1F
100
AcDbEntity
  8
0
  6
Continuous
 62
     7
370
    15
100
AcDbLine
 10
1487.7859797844
 20
1494.6989084694
 30
0.0
 11
1487.7859797844
 21
1481.1097945187
 31
0.0
  0
LINE
  5
1F5
330
1F
100
AcDbEntity
  8
0
  6
Continuous
 62
     7
370
    15
100
AcDbLine
 10
1482.7859808274
 20
1481.6989119265
 30
0.0
 11
1482.7859808274
 21
1496.6989050719
 31
0.0
  0
LINE
  5
1F6
330
1F
100
AcDbEntity
  8
0
  6
Continuous
 62
     7
370
    15
100
AcDbLine
 10
1447.7859806784
 20
1414.6989083949
 30
0.0
 11
1447.7859806784
 21
1427.0989078197
 31
0.0
  0
LINE
  5
1F7
330
1F
100
AcDbEntity
  8
0
  6
Continuous
 62
     7
370
    15
100
AcDbLine
 10
1448.7859808423
 20
1427.0989078197
 30
0.0
 11
1448.7859808423
 21
1413.698908231
 31
0.0
  0
LINE
  5
1F8
330
1F
100
AcDbEntity
  8
0
  6
Continuous
 62
     7
370
    15
100
AcDbLine
 10
1476.5859801837
 20
1413.698908231
 30
0.0
 11
1476.5859801837
 21
1423.0989090267
 31
0.0
  0
LINE
  5
1F9
330
1F
100
AcDbEntity
  8
0
  6
Continuous
 62
     7
370
    15
100
AcDbLine
 10
1444.785981118
 20
1496.498909137
 30
0.0
 11
1444.785981118
 21
1466.8989072654
 31
0.0
  0
LINE
  5
1FA
330
1F
100
AcDbEntity
  8
0
  6
Continuous
 62
     7
370
    15
100
AcDbLine
 10
1441.7859806263
 20
1468.7817509386
 30
0.0
 11
1441.7859806263
 21
1494.6160654637
 31
0.0
  0
LINE
  5
1FB
330
1F
100
AcDbEntity
  8
0
  6
Continuous
 62
     7
370
    15
100
AcDbLine
 10
1466.2859809168
 20
1459.0989093396
 30
0.0
 11
1466.2859809168
 21
1510.698911092
 31
0.0
  0
LINE
  5
1FC
330
1F
100
AcDbEntity
  8
0
  6
Continuous
 62
     7
370
    15
100
AcDbLine
 10
1464.7859816023
 20
1459.0989093396
 30
0.0
 11
1464.7859816023
 21
1510.698911092
 31
0.0
  0
LINE
  5
1FD
330
1F
100
AcDbEntity
  8
0
  6
Continuous
 62
     7
370
    15
100
AcDbLine
 10
1446.7859805145
 20
1510.698911092
 30
0.0
 11
1446.7859805145
 21
1459.0989093396
 31
0.0
  0
LINE
  5
1FE
330
1F
100
AcDbEntity
  8
0
  6
Continuous
 62
     7
370
    15
100
AcDbLine
 10
1445.2859812
 20
1510.698911092
 30
0.0
 11
1445.2859812
 21
1459.0989093396
 31
0.0
  0
LINE
  5
1FF
330
1F
100
AcDbEntity
  8
0
  6
Continuous
 62
     7
370
    15
100
AcDbLine
 10
1447.8064092391
 20
1508.1475864265
 30
0.0
 11
1447.8064092391
 21
1510.698911092
 31
0.0
  0
LINE
  5
200
330
1F
100
AcDbEntity
  8
0
  6
Continuous
 62
     7
370
    15
100
AcDbLine
 10
1447.8064092391
 20
1459.0989093396
 30
0.0
 11
1447.8064092391
 21
1508.1475864265
 31
0.0
  0
LINE
  5
201
330
1F
100
AcDbEntity
  8
0
  6
Continuous
 62
     7
370
    15
100
AcDbLine
 10
1463.8176557191
 20
1510.698911092
 30
0.0
 11
1463.8176557191
 21
1459.0989093396
 31
0.0
  0
LINE
  5
202
330
1F
100
AcDbEntity
  8
0
  6
Continuous
 62
     7
370
    15
100
AcDbLine
 10
1476.785979844
 20
1292.6989088866
 30
0.0
 11
1482.7859808274
 21
1292.6989088866
 31
0.0
  0
LINE
  5
203
330
1F
100
AcDbEntity
  8
0
  6
Continuous
 62
     7
370
    15
100
AcDbLine
 10
1476.785979844
 20
1402.6989082906
 30
0.0
 11
1476.785979844
 21
1423.0989090267
 31
0.0
  0
LINE
  5
204
330
1F
100
AcDbEntity
  8
0
  6
Continuous
 62
     7
370
    15
100
AcDbLine
 10
1476.785979844
 20
1463.0989099953
 30
0.0
 11
1476.785979844
 21
1481.6989119265
 31
0.0
  0
LINE
  5
205
330
1F
100
AcDbEntity
  8
0
  6
Continuous
 62
     7
370
    15
100
AcDbLine
 10
1476.785979844
 20
1481.6989119265
 30
0.0
 11
1482.7859808274
 21
1481.6989119265
 31
0.0
  0
LINE
  5
206
330
1F
100
AcDbEntity
  8
0
  6
Continuous
 62
     7
370
    15
100
AcDbLine
 10
1482.7859808274
 20
1292.6989088866
 30
0.0
 11
1482.7859808274
 21
1428.4728563491
 31
0.0
  0
LINE
  5
207
330
1F
100
AcDbEntity
  8
0
  6
Continuous
 62
     7
370
    15
100
AcDbLine
 10
1482.7859808274
 20
1457.7249589476
 30
0.0
 11
1482.7859808274
 21
1481.6989119265
 31
0.0
  0
LINE
  5
208
330
1F
100
AcDbEntity
  8
0
  6
Continuous
 62
     7
370
    15
100
AcDbLine
 10
1482.7859808274
 20
1277.6989082906
 30
0.0
 11
1482.7859808274
 21
1292.6989088866
 31
0.0
  0
ARC
  5
209
330
1F
100
AcDbEntity
  8
0
  6
Continuous
 62
     7
370
    15
100
AcDbCircle
 10
1479.7860298839
 20
1262.7435803096
 30
0.0
 40
15.04606830648451
100
AcDbArc
 50
83.7042889556
 51
96.2170864708
  0
LINE
  5
20A
330
1F
100
AcDbEntity
  8
0
  6
Continuous
 62
     7
370
    15
100
AcDbLine
 10
1476.785979844
 20
1481.6989119265
 30
0.0
 11
1476.785979844
 21
1496.6989050719
 31
0.0
  0
LINE
  5
20B
330
1F
100
AcDbEntity
  8
0
  6
Continuous
 62
     7
370
    15
100
AcDbLine
 10
1467.0859814205
 20
1481.0191656563
 30
0.0
 11
1467.0859814205
 21
1466.6989113304
 31
0.0
  0
LINE
  5
20C
330
1F
100
AcDbEntity
  8
0
  6
Continuous
 62
     7
370
    15
100
AcDbLine
 10
1467.0859814205
 20
1496.6989050719
 30
0.0
 11
1467.0859814205
 21
1481.0191656563
 31
0.0
  0
LINE
  5
20D
330
1F
100
AcDbEntity
  8
0
  6
Continuous
 62
     7
370
    15
100
AcDbLine
 10
1472.4859815606
 20
1481.0191656563
 30
0.0
 11
1472.4859815606
 21
1496.6989050719
 31
0.0
  0
LINE
  5
20E
330
1F
100
AcDbEntity
  8
0
  6
Continuous
 62
     7
370
    15
100
AcDbLine
 10
1472.4859815606
 20
1466.6989113304
 30
0.0
 11
1472.4859815606
 21
1481.0191656563
 31
0.0
  0
LINE
  5
20F
330
1F
100
AcDbEntity
  8
0
  6
Continuous
 62
     7
370
    15
100
AcDbLine
 10
1466.7859800675
 20
1481.0327555153
 30
0.0
 11
1466.7859800675
 21
1496.3989074442
 31
0.0
  0
LINE
  5
210
330
1F
100
AcDbEntity
  8
0
  6
Continuous
 62
     7
370
    15
100
AcDbLine
 10
1466.7859800675
 20
1466.9989089582
 30
0.0
 11
1466.7859800675
 21
1481.0327555153
 31
0.0
  0
LINE
  5
211
330
1F
100
AcDbEntity
  8
0
  6
Continuous
 62
     7
370
    15
100
AcDbLine
 10
1453.2859806486
 20
-647.3010440257
 30
0.0
 11
1453.2859806486
 21
-627.3010630992
 31
0.0
  0
LINE
  5
212
330
1F
100
AcDbEntity
  8
0
  6
Continuous
 62
     7
370
    15
100
AcDbLine
 10
1476.785979844
 20
1402.6989082906
 30
0.0
 11
1476.785979844
 21
-647.3010440257
 31
0.0
  0
LINE
  5
213
330
1F
100
AcDbEntity
  8
0
  6
Continuous
 62
     7
370
    15
100
AcDbLine
 10
1476.785979844
 20
-647.3010440257
 30
0.0
 11
1460.2859799334
 21
-647.3010440257
 31
0.0
  0
LINE
  5
214
330
1F
100
AcDbEntity
  8
0
  6
Continuous
 62
     7
370
    15
100
AcDbLine
 10
1460.2859799334
 20
-627.3010630992
 30
0.0
 11
1460.2859799334
 21
-647.3010440257
 31
0.0
  0
LINE
  5
215
330
1F
100
AcDbEntity
  8
0
  6
Continuous
 62
     7
370
    15
100
AcDbLine
 10
1453.2859806486
 20
-627.3010630992
 30
0.0
 11
1460.2859799334
 21
-627.3010630992
 31
0.0
  0
LINE
  5
216
330
1F
100
AcDbEntity
  8
0
  6
Continuous
 62
     7
370
    15
100
AcDbLine
 10
1436.785980738
 20
1402.6989082906
 30
0.0
 11
1436.785980738
 21
-647.3010440257
 31
0.0
  0
LINE
  5
217
330
1F
100
AcDbEntity
  8
0
  6
Continuous
 62
     7
370
    15
100
AcDbLine
 10
1453.2859806486
 20
-647.3010440257
 30
0.0
 11
1436.785980738
 21
-647.3010440257
 31
0.0
  0
LINE
  5
218
330
1F
100
AcDbEntity
  8
0
  6
Continuous
 62
     7
370
    15
100
AcDbLine
 10
1476.785979844
 20
1402.6989082906
 30
0.0
 11
1436.785980738
 21
1402.6989082906
 31
0.0
  0
LINE
  5
219
330
1F
100
AcDbEntity
  8
0
  6
Continuous
 62
     7
370
    15
100
AcDbLine
 10
1422.3120321103
 20
1468.0989052269
 30
0.0
 11
1422.3120321103
 21
1418.0989082071
 31
0.0
  0
LINE
  5
21A
330
1F
100
AcDbEntity
  8
0
  6
Continuous
 62
     7
370
    15
100
AcDbLine
 10
1424.3120324381
 20
1418.0989082071
 30
0.0
 11
1424.3120324381
 21
1468.0989052269
 31
0.0
  0
LINE
  5
21B
330
1F
100
AcDbEntity
  8
0
  6
Continuous
 62
     7
370
    15
100
AcDbLine
 10
1425.3120326021
 20
1467.0989106509
 30
0.0
 11
1425.3120326021
 21
1419.098908371
 31
0.0
  0
LINE
  5
21C
330
1F
100
AcDbEntity
  8
0
  6
Continuous
 62
     8
370
    15
100
AcDbLine
 10
1480.6120317944
 20
1437.3531716976
 30
0.0
 11
1480.6120317944
 21
1428.0989079836
 31
0.0
  0
LINE
  5
21D
330
1F
100
AcDbEntity
  8
0
  6
Continuous
 62
     8
370
    15
100
AcDbLine
 10
1480.6120317944
 20
1458.0989073131
 30
0.0
 11
1480.6120317944
 21
1437.3531716976
 31
0.0
  0
LINE
  5
21E
330
1F
100
AcDbEntity
  8
0
  6
Continuous
 62
     8
370
    15
100
AcDbLine
 10
1482.3291894563
 20
1428.0989079836
 30
0.0
 11
1482.3291894563
 21
1458.0989073131
 31
0.0
  0
LINE
  5
21F
330
1F
100
AcDbEntity
  8
0
  6
Continuous
 62
     8
370
    15
100
AcDbLine
 10
1482.4706126519
 20
1437.3756128463
 30
0.0
 11
1482.4706126519
 21
1428.1574863109
 31
0.0
  0
LINE
  5
220
330
1F
100
AcDbEntity
  8
0
  6
Continuous
 62
     8
370
    15
100
AcDbLine
 10
1482.4706126519
 20
1458.0403308484
 30
0.0
 11
1482.4706126519
 21
1437.3756128463
 31
0.0
  0
LINE
  5
221
330
1F
100
AcDbEntity
  8
0
  6
Continuous
 62
     8
370
    15
100
AcDbLine
 10
1484.3534525999
 20
1438.0968327734
 30
0.0
 11
1484.3534525999
 21
1456.1574871752
 31
0.0
  0
LINE
  5
222
330
1F
100
AcDbEntity
  8
0
  6
Continuous
 62
     8
370
    15
100
AcDbLine
 10
1484.3534525999
 20
1430.0403299841
 30
0.0
 11
1484.3534525999
 21
1438.0968327734
 31
0.0
  0
LINE
  5
223
330
1F
100
AcDbEntity
  8
0
  6
Continuous
 62
     8
370
    15
100
AcDbLine
 10
1434.8688234159
 20
1307.6989094827
 30
0.0
 11
1434.8688234159
 21
1277.6989082906
 31
0.0
  0
LINE
  5
224
330
1F
100
AcDbEntity
  8
0
  6
Continuous
 62
     8
370
    15
100
AcDbLine
 10
1434.7274020829
 20
1281.3843454334
 30
0.0
 11
1434.7274020829
 21
1307.640333018
 31
0.0
  0
LINE
  5
225
330
1F
100
AcDbEntity
  8
0
  6
Continuous
 62
     8
370
    15
100
AcDbLine
 10
1434.7274020829
 20
1277.7574847552
 30
0.0
 11
1434.7274020829
 21
1281.3843454334
 31
0.0
  0
LINE
  5
226
330
1F
100
AcDbEntity
  8
0
  6
Continuous
 62
     8
370
    15
100
AcDbLine
 10
1436.5859807431
 20
1281.3399846766
 30
0.0
 11
1436.5859807431
 21
1307.6989094827
 31
0.0
  0
LINE
  5
227
330
1F
100
AcDbEntity
  8
0
  6
Continuous
 62
     8
370
    15
100
AcDbLine
 10
1436.5859807431
 20
1277.6989082906
 30
0.0
 11
1436.5859807431
 21
1281.3399846766
 31
0.0
  0
LINE
  5
228
330
1F
100
AcDbEntity
  8
0
  6
Continuous
 62
     8
370
    15
100
AcDbLine
 10
1432.844559341
 20
1282.8101481411
 30
0.0
 11
1432.844559341
 21
1279.6403284285
 31
0.0
  0
LINE
  5
229
330
1F
100
AcDbEntity
  8
0
  6
Continuous
 62
     8
370
    15
100
AcDbLine
 10
1432.844559341
 20
1305.7574893448
 30
0.0
 11
1432.844559341
 21
1282.8101481411
 31
0.0
  0
LINE
  5
22A
330
1F
100
AcDbEntity
  8
0
  6
Continuous
 62
     8
370
    15
100
AcDbLine
 10
1434.8688234159
 20
1360.7323619637
 30
0.0
 11
1434.8688234159
 21
1332.6989079926
 31
0.0
  0
LINE
  5
22B
330
1F
100
AcDbEntity
  8
0
  6
Continuous
 62
     8
370
    15
100
AcDbLine
 10
1434.8688234159
 20
1362.6989091847
 30
0.0
 11
1434.8688234159
 21
1360.7323619637
 31
0.0
  0
LINE
  5
22C
330
1F
100
AcDbEntity
  8
0
  6
Continuous
 62
     8
370
    15
100
AcDbLine
 10
1434.7274020829
 20
1332.7574844572
 30
0.0
 11
1434.7274020829
 21
1362.6403289947
 31
0.0
  0
LINE
  5
22D
330
1F
100
AcDbEntity
  8
0
  6
Continuous
 62
     8
370
    15
100
AcDbLine
 10
1436.5859807431
 20
1332.6989079926
 30
0.0
 11
1436.5859807431
 21
1362.6989091847
 31
0.0
  0
LINE
  5
22E
330
1F
100
AcDbEntity
  8
0
  6
Continuous
 62
     8
370
    15
100
AcDbLine
 10
1432.844559341
 20
1360.7574853215
 30
0.0
 11
1432.844559341
 21
1334.6403281304
 31
0.0
  0
LINE
  5
22F
330
1F
100
AcDbEntity
  8
0
  6
Continuous
 62
     8
370
    15
100
AcDbLine
 10
1443.8688234941
 20
1476.8095727179
 30
0.0
 11
1443.8688234941
 21
1466.6989113304
 31
0.0
  0
LINE
  5
230
330
1F
100
AcDbEntity
  8
0
  6
Continuous
 62
     8
370
    15
100
AcDbLine
 10
1443.8688234941
 20
1496.6989050719
 30
0.0
 11
1443.8688234941
 21
1476.8095727179
 31
0.0
  0
LINE
  5
231
330
1F
100
AcDbEntity
  8
0
  6
Continuous
 62
     8
370
    15
100
AcDbLine
 10
1444.5859805264
 20
1466.6989113304
 30
0.0
 11
1444.5859805264
 21
1496.6989050719
 31
0.0
  0
LINE
  5
232
330
1F
100
AcDbEntity
  8
0
  6
Continuous
 62
     8
370
    15
100
AcDbLine
 10
1443.7274021611
 20
1466.7574877951
 30
0.0
 11
1443.7274021611
 21
1496.6403286073
 31
0.0
  0
LINE
  5
233
330
1F
100
AcDbEntity
  8
0
  6
Continuous
 62
     8
370
    15
100
AcDbLine
 10
1441.8445594192
 20
1494.757484934
 30
0.0
 11
1441.8445594192
 21
1468.6403314683
 31
0.0
  0
LINE
  5
234
330
1F
100
AcDbEntity
  8
0
  6
Continuous
 62
     7
370
    15
100
AcDbLine
 10
-668.247074184
 20
-722.6432313777
 30
0.0
 11
-678.2210248681
 21
-722.6432313777
 31
0.0
  0
LINE
  5
235
330
1F
100
AcDbEntity
  8
0
  6
Continuous
 62
     7
370
    15
100
AcDbLine
 10
-707.2731259437
 20
-722.6432313777
 30
0.0
 11
-710.7470709058
 21
-722.6432313777
 31
0.0
  0
LINE
  5
236
330
1F
100
AcDbEntity
  8
0
  6
Continuous
 62
     7
370
    15
100
AcDbLine
 10
-742.7470724257
 20
-722.6432313777
 30
0.0
 11
-790.7470730757
 21
-722.6432313777
 31
0.0
  0
LINE
  5
237
330
1F
100
AcDbEntity
  8
0
  6
Continuous
 62
     7
370
    15
100
AcDbLine
 10
-55.2470612498
 20
-722.6432313777
 30
0.0
 11
-653.2649326297
 21
-722.6432313777
 31
0.0
  0
LINE
  5
238
330
1F
100
AcDbEntity
  8
0
  6
Continuous
 62
     7
370
    15
100
AcDbLine
 10
558.7529611615
 20
-722.6432313777
 30
0.0
 11
21.7790079145
 21
-722.6432313777
 31
0.0
  0
LINE
  5
239
330
1F
100
AcDbEntity
  8
0
  6
Continuous
 62
     7
370
    15
100
AcDbLine
 10
-7.2731304141
 20
-722.6432313777
 30
0.0
 11
-40.2649569483
 21
-722.6432313777
 31
0.0
  0
LINE
  5
23A
330
1F
100
AcDbEntity
  8
0
  6
Continuous
 62
     7
370
    15
100
AcDbLine
 10
1171.7528772382
 20
-722.6432313777
 30
0.0
 11
573.735065463
 21
-722.6432313777
 31
0.0
  0
LINE
  5
23B
330
1F
100
AcDbEntity
  8
0
  6
Continuous
 62
     7
370
    15
100
AcDbLine
 10
1309.2529249219
 20
-722.6432313777
 30
0.0
 11
1261.2528276471
 21
-722.6432313777
 31
0.0
  0
LINE
  5
23C
330
1F
100
AcDbEntity
  8
0
  6
Continuous
 62
     7
370
    15
100
AcDbLine
 10
1229.2530012159
 20
-722.6432313777
 30
0.0
 11
1186.7351007489
 21
-722.6432313777
 31
0.0
  0
LINE
  5
23D
330
1F
100
AcDbEntity
  8
0
  6
Continuous
 62
     7
370
    15
100
AcDbLine
 10
1186.8029308347
 20
-747.6432312846
 30
0.0
 11
1229.2530012159
 21
-747.6432312846
 31
0.0
  0
LINE
  5
23E
330
1F
100
AcDbEntity
  8
0
  6
Continuous
 62
     7
370
    15
100
AcDbLine
 10
1261.2528276471
 20
-747.6432312846
 30
0.0
 11
1309.2529249219
 21
-747.6432312846
 31
0.0
  0
LINE
  5
23F
330
1F
100
AcDbEntity
  8
0
  6
Continuous
 62
     7
370
    15
100
AcDbLine
 10
573.8028955488
 20
-747.6432312846
 30
0.0
 11
1171.7348766355
 21
-747.6432312846
 31
0.0
  0
LINE
  5
240
330
1F
100
AcDbEntity
  8
0
  6
Continuous
 62
     7
370
    15
100
AcDbLine
 10
-40.197067258
 20
-747.6432312846
 30
0.0
 11
-7.7470469447
 21
-747.6432312846
 31
0.0
  0
LINE
  5
241
330
1F
100
AcDbEntity
  8
0
  6
Continuous
 62
     7
370
    15
100
AcDbLine
 10
22.2529244451
 20
-747.6432312846
 30
0.0
 11
558.7348413495
 21
-747.6432312846
 31
0.0
  0
LINE
  5
242
330
1F
100
AcDbEntity
  8
0
  6
Continuous
 62
     7
370
    15
100
AcDbLine
 10
-653.1970727416
 20
-747.6432312846
 30
0.0
 11
-55.2651214572
 21
-747.6432312846
 31
0.0
  0
LINE
  5
243
330
1F
100
AcDbEntity
  8
0
  6
Continuous
 62
     7
370
    15
100
AcDbLine
 10
-790.7470730757
 20
-747.6432312846
 30
0.0
 11
-742.7470724257
 21
-747.6432312846
 31
0.0
  0
LINE
  5
244
330
1F
100
AcDbEntity
  8
0
  6
Continuous
 62
     7
370
    15
100
AcDbLine
 10
-710.7470709058
 20
-747.6432312846
 30
0.0
 11
-707.7470722767
 21
-747.6432312846
 31
0.0
  0
LINE
  5
245
330
1F
100
AcDbEntity
  8
0
  6
Continuous
 62
     7
370
    15
100
AcDbLine
 10
-677.7470710846
 20
-747.6432312846
 30
0.0
 11
-668.2651120396
 21
-747.6432312846
 31
0.0
  0
LINE
  5
246
330
1F
100
AcDbEntity
  8
0
  6
Continuous
 62
     7
370
    15
100
AcDbLine
 10
-746.7470730813
 20
-751.7432299077
 30
0.0
 11
-746.7470730813
 21
-759.743231219
 31
0.0
  0
LINE
  5
247
330
1F
100
AcDbEntity
  8
0
  6
Continuous
 62
     7
370
    15
100
AcDbLine
 10
1225.2528142957
 20
-751.7432299077
 30
0.0
 11
1225.2528142957
 21
-759.743231219
 31
0.0
  0
LINE
  5
248
330
1F
100
AcDbEntity
  8
0
  6
Continuous
 62
     7
370
    15
100
AcDbLine
 10
1265.2530145673
 20
-759.743231219
 30
0.0
 11
1265.2530145673
 21
-751.7432299077
 31
0.0
  0
LINE
  5
249
330
1F
100
AcDbEntity
  8
0
  6
Continuous
 62
     7
370
    15
100
AcDbLine
 10
1229.2530012159
 20
-747.6432312846
 30
0.0
 11
1229.2530012159
 21
-751.7432299077
 31
0.0
  0
LINE
  5
24A
330
1F
100
AcDbEntity
  8
0
  6
Continuous
 62
     7
370
    15
100
AcDbLine
 10
1229.2530012159
 20
-720.9432314716
 30
0.0
 11
1229.2530012159
 21
-722.5432310819
 31
0.0
  0
LINE
  5
24B
330
1F
100
AcDbEntity
  8
0
  6
Continuous
 62
     7
370
    15
100
AcDbLine
 10
1261.2528276471
 20
-722.5432310819
 30
0.0
 11
1261.2528276471
 21
-720.9432314716
 31
0.0
  0
LINE
  5
24C
330
1F
100
AcDbEntity
  8
0
  6
Continuous
 62
     7
370
    15
100
AcDbLine
 10
1261.2528276471
 20
-751.7432299077
 30
0.0
 11
1261.2528276471
 21
-747.6432312846
 31
0.0
  0
LINE
  5
24D
330
1F
100
AcDbEntity
  8
0
  6
Continuous
 62
     7
370
    15
100
AcDbLine
 10
1261.2528276471
 20
-720.9432314716
 30
0.0
 11
1259.4530057935
 21
-719.1432312697
 31
0.0
  0
LINE
  5
24E
330
1F
100
AcDbEntity
  8
0
  6
Continuous
 62
     7
370
    15
100
AcDbLine
 10
1231.0528230695
 20
-719.1432312697
 30
0.0
 11
1229.2530012159
 21
-720.9432314716
 31
0.0
  0
LINE
  5
24F
330
1F
100
AcDbEntity
  8
0
  6
Continuous
 62
     7
370
    15
100
AcDbLine
 10
-742.7470724257
 20
-747.6432312846
 30
0.0
 11
-742.7470724257
 21
-751.7432299077
 31
0.0
  0
LINE
  5
250
330
1F
100
AcDbEntity
  8
0
  6
Continuous
 62
     7
370
    15
100
AcDbLine
 10
-742.7470724257
 20
-720.9432314716
 30
0.0
 11
-742.7470724257
 21
-722.5432310819
 31
0.0
  0
LINE
  5
251
330
1F
100
AcDbEntity
  8
0
  6
Continuous
 62
     7
370
    15
100
AcDbLine
 10
-710.7470709058
 20
-722.5432310819
 30
0.0
 11
-710.7470709058
 21
-720.9432314716
 31
0.0
  0
LINE
  5
252
330
1F
100
AcDbEntity
  8
0
  6
Continuous
 62
     7
370
    15
100
AcDbLine
 10
-710.7470709058
 20
-751.7432299077
 30
0.0
 11
-710.7470709058
 21
-747.6432312846
 31
0.0
  0
LINE
  5
253
330
1F
100
AcDbEntity
  8
0
  6
Continuous
 62
     7
370
    15
100
AcDbLine
 10
-710.7470709058
 20
-720.9432314716
 30
0.0
 11
-712.5470715733
 21
-719.1432312697
 31
0.0
  0
LINE
  5
254
330
1F
100
AcDbEntity
  8
0
  6
Continuous
 62
     7
370
    15
100
AcDbLine
 10
-740.9470717581
 20
-719.1432312697
 30
0.0
 11
-742.7470724257
 21
-720.9432314716
 31
0.0
  0
LINE
  5
255
330
1F
100
AcDbEntity
  8
0
  6
Continuous
 62
     7
370
    15
100
AcDbLine
 10
558.7529611615
 20
-704.6432316869
 30
0.0
 11
558.7529611615
 21
-722.6432313777
 31
0.0
  0
LINE
  5
256
330
1F
100
AcDbEntity
  8
0
  6
Continuous
 62
     7
370
    15
100
AcDbLine
 10
573.7529468564
 20
-722.6432313777
 30
0.0
 11
573.7529468564
 21
-704.6432316869
 31
0.0
  0
LINE
  5
257
330
1F
100
AcDbEntity
  8
0
  6
Continuous
 62
     7
370
    15
100
AcDbLine
 10
-668.247074184
 20
-704.6432316869
 30
0.0
 11
-668.247074184
 21
-722.6432313777
 31
0.0
  0
LINE
  5
258
330
1F
100
AcDbEntity
  8
0
  6
Continuous
 62
     7
370
    15
100
AcDbLine
 10
-653.2470661374
 20
-722.6432313777
 30
0.0
 11
-653.2470661374
 21
-704.6432316869
 31
0.0
  0
LINE
  5
259
330
1F
100
AcDbEntity
  8
0
  6
Continuous
 62
     7
370
    15
100
AcDbLine
 10
-55.2470612498
 20
-704.6432316869
 30
0.0
 11
-55.2470612498
 21
-722.6432313777
 31
0.0
  0
LINE
  5
25A
330
1F
100
AcDbEntity
  8
0
  6
Continuous
 62
     7
370
    15
100
AcDbLine
 10
-40.2470755549
 20
-722.6432313777
 30
0.0
 11
-40.2470755549
 21
-704.6432316869
 31
0.0
  0
LINE
  5
25B
330
1F
100
AcDbEntity
  8
0
  6
Continuous
 62
     7
370
    15
100
AcDbLine
 10
1171.7528772382
 20
-704.6432316869
 30
0.0
 11
1171.7528772382
 21
-722.6432313777
 31
0.0
  0
LINE
  5
25C
330
1F
100
AcDbEntity
  8
0
  6
Continuous
 62
     7
370
    15
100
AcDbLine
 10
1186.7529821424
 20
-722.6432313777
 30
0.0
 11
1186.7529821424
 21
-704.6432316869
 31
0.0
  0
LINE
  5
25D
330
1F
100
AcDbEntity
  8
0
  6
Continuous
 62
     7
370
    15
100
AcDbLine
 10
-792.5470731758
 20
-722.6432313777
 30
0.0
 11
-792.7470731707
 21
-722.843231038
 31
0.0
  0
LINE
  5
25E
330
1F
100
AcDbEntity
  8
0
  6
Continuous
 62
     7
370
    15
100
AcDbLine
 10
-792.7470731707
 20
-747.4432316243
 30
0.0
 11
-792.5470731758
 21
-747.6432312846
 31
0.0
  0
LINE
  5
25F
330
1F
100
AcDbEntity
  8
0
  6
Continuous
 62
     7
370
    15
100
AcDbLine
 10
-792.5470731758
 20
-747.6432312846
 30
0.0
 11
-790.9470732017
 21
-747.6432312846
 31
0.0
  0
LINE
  5
260
330
1F
100
AcDbEntity
  8
0
  6
Continuous
 62
     7
370
    15
100
AcDbLine
 10
-790.9470732017
 20
-722.6432313777
 30
0.0
 11
-792.5470731758
 21
-722.6432313777
 31
0.0
  0
LINE
  5
261
330
1F
100
AcDbEntity
  8
0
  6
Continuous
 62
     7
370
    15
100
AcDbLine
 10
-790.9470732017
 20
-747.6432312846
 30
0.0
 11
-790.7470730757
 21
-747.4432316243
 31
0.0
  0
LINE
  5
262
330
1F
100
AcDbEntity
  8
0
  6
Continuous
 62
     7
370
    15
100
AcDbLine
 10
-790.7470730757
 20
-722.843231038
 30
0.0
 11
-790.9470732017
 21
-722.6432313777
 31
0.0
  0
LINE
  5
263
330
1F
100
AcDbEntity
  8
0
  6
Continuous
 62
     7
370
    15
100
AcDbLine
 10
1311.0529851941
 20
-747.6432312846
 30
0.0
 11
1311.253018382
 21
-747.4432316243
 31
0.0
  0
LINE
  5
264
330
1F
100
AcDbEntity
  8
0
  6
Continuous
 62
     7
370
    15
100
AcDbLine
 10
1311.253018382
 20
-722.843231038
 30
0.0
 11
1311.0529851941
 21
-722.6432313777
 31
0.0
  0
LINE
  5
265
330
1F
100
AcDbEntity
  8
0
  6
Continuous
 62
     7
370
    15
100
AcDbLine
 10
1311.0529851941
 20
-722.6432313777
 30
0.0
 11
1309.4529581098
 21
-722.6432313777
 31
0.0
  0
LINE
  5
266
330
1F
100
AcDbEntity
  8
0
  6
Continuous
 62
     7
370
    15
100
AcDbLine
 10
1309.4529581098
 20
-747.6432312846
 30
0.0
 11
1311.0529851941
 21
-747.6432312846
 31
0.0
  0
LINE
  5
267
330
1F
100
AcDbEntity
  8
0
  6
Continuous
 62
     7
370
    15
100
AcDbLine
 10
1309.4529581098
 20
-722.6432313777
 30
0.0
 11
1309.2529249219
 21
-722.843231038
 31
0.0
  0
LINE
  5
268
330
1F
100
AcDbEntity
  8
0
  6
Continuous
 62
     7
370
    15
100
AcDbLine
 10
1309.2529249219
 20
-747.4432316243
 30
0.0
 11
1309.4529581098
 21
-747.6432312846
 31
0.0
  0
LINE
  5
269
330
1F
100
AcDbEntity
  8
0
  6
Continuous
 62
     7
370
    15
100
AcDbLine
 10
-7.7470469447
 20
-752.3171816587
 30
0.0
 11
-7.7470469447
 21
-755.9171792686
 31
0.0
  0
LINE
  5
26A
330
1F
100
AcDbEntity
  8
0
  6
Continuous
 62
     7
370
    15
100
AcDbLine
 10
22.2529244451
 20
-755.9171792686
 30
0.0
 11
22.2529244451
 21
-752.3171816587
 31
0.0
  0
LINE
  5
26B
330
1F
100
AcDbEntity
  8
0
  6
Continuous
 62
     7
370
    15
100
AcDbLine
 10
22.2529244451
 20
-752.3171816587
 30
0.0
 11
22.0529508619
 21
-752.1171782732
 31
0.0
  0
LINE
  5
26C
330
1F
100
AcDbEntity
  8
0
  6
Continuous
 62
     7
370
    15
100
AcDbLine
 10
-7.5470733615
 20
-752.1171782732
 30
0.0
 11
-7.7470469447
 21
-752.3171816587
 31
0.0
  0
LINE
  5
26D
330
1F
100
AcDbEntity
  8
0
  6
Continuous
 62
     7
370
    15
100
AcDbLine
 10
-7.7470469447
 20
-755.9171792686
 30
0.0
 11
-7.5470733615
 21
-756.1171789288
 31
0.0
  0
LINE
  5
26E
330
1F
100
AcDbEntity
  8
0
  6
Continuous
 62
     7
370
    15
100
AcDbLine
 10
22.0529508619
 20
-756.1171789288
 30
0.0
 11
22.2529244451
 21
-755.9171792686
 31
0.0
  0
LINE
  5
26F
330
1F
100
AcDbEntity
  8
0
  6
Continuous
 62
     7
370
    15
100
AcDbLine
 10
-677.7470710846
 20
-752.3171816587
 30
0.0
 11
-677.9470744701
 21
-752.1171782732
 31
0.0
  0
LINE
  5
270
330
1F
100
AcDbEntity
  8
0
  6
Continuous
 62
     7
370
    15
100
AcDbLine
 10
-707.5470763417
 20
-752.1171782732
 30
0.0
 11
-707.7470722767
 21
-752.3171816587
 31
0.0
  0
LINE
  5
271
330
1F
100
AcDbEntity
  8
0
  6
Continuous
 62
     7
370
    15
100
AcDbLine
 10
-707.7470722767
 20
-752.3171816587
 30
0.0
 11
-707.7470722767
 21
-755.9171792686
 31
0.0
  0
LINE
  5
272
330
1F
100
AcDbEntity
  8
0
  6
Continuous
 62
     7
370
    15
100
AcDbLine
 10
-677.7470710846
 20
-755.9171792686
 30
0.0
 11
-677.7470710846
 21
-752.3171816587
 31
0.0
  0
LINE
  5
273
330
1F
100
AcDbEntity
  8
0
  6
Continuous
 62
     7
370
    15
100
AcDbLine
 10
-707.7470722767
 20
-755.9171792686
 30
0.0
 11
-707.5470763417
 21
-756.1171789288
 31
0.0
  0
LINE
  5
274
330
1F
100
AcDbEntity
  8
0
  6
Continuous
 62
     7
370
    15
100
AcDbLine
 10
-677.9470744701
 20
-756.1171789288
 30
0.0
 11
-677.7470710846
 21
-755.9171792686
 31
0.0
  0
ARC
  5
275
330
1F
100
AcDbEntity
  8
0
  6
Continuous
 62
     7
370
    15
100
AcDbCircle
 10
-741.5470731707
 20
-759.9432312461
 30
0.0
 40
0.2000000000000455
100
AcDbArc
 50
90.0
 51
180.0
  0
ARC
  5
276
330
1F
100
AcDbEntity
  8
0
  6
Continuous
 62
     7
370
    15
100
AcDbCircle
 10
-711.9470731707
 20
-759.9432312461
 30
0.0
 40
0.2000000000000455
100
AcDbArc
 50
0.0
 51
90.0
  0
LINE
  5
277
330
1F
100
AcDbEntity
  8
0
  6
Continuous
 62
     7
370
    15
100
AcDbLine
 10
-711.7470729323
 20
-761.6603885412
 30
0.0
 11
-711.7470729323
 21
-759.9432308793
 31
0.0
  0
LINE
  5
278
330
1F
100
AcDbEntity
  8
0
  6
Continuous
 62
     7
370
    15
100
AcDbLine
 10
-741.7470741244
 20
-759.9432308793
 30
0.0
 11
-741.7470741244
 21
-761.6603885412
 31
0.0
  0
ARC
  5
279
330
1F
100
AcDbEntity
  8
0
  6
Continuous
 62
     7
370
    15
100
AcDbCircle
 10
-711.9470731707
 20
-761.6603885337
 30
0.0
 40
0.2000000000000498
100
AcDbArc
 50
315.0
 51
0.0
  0
ARC
  5
27A
330
1F
100
AcDbEntity
  8
0
  6
Continuous
 62
     7
370
    15
100
AcDbCircle
 10
-741.5470731707
 20
-761.6603885337
 30
0.0
 40
0.2000000000000498
100
AcDbArc
 50
180.0
 51
225.0
  0
LINE
  5
27B
330
1F
100
AcDbEntity
  8
0
  6
Continuous
 62
     7
370
    15
100
AcDbLine
 10
-741.6884939345
 20
-761.8018117368
 30
0.0
 11
-739.8056502612
 21
-763.6846516847
 31
0.0
  0
LINE
  5
27C
330
1F
100
AcDbEntity
  8
0
  6
Continuous
 62
     7
370
    15
100
AcDbLine
 10
-713.6884930702
 20
-763.6846516847
 30
0.0
 11
-711.805649397
 21
-761.8018117368
 31
0.0
  0
ARC
  5
27D
330
1F
100
AcDbEntity
  8
0
  6
Continuous
 62
     7
370
    15
100
AcDbCircle
 10
-739.6642304583
 20
-763.5432312461
 30
0.0
 40
0.1999999999999695
100
AcDbArc
 50
225.0
 51
270.0
  0
ARC
  5
27E
330
1F
100
AcDbEntity
  8
0
  6
Continuous
 62
     7
370
    15
100
AcDbCircle
 10
-713.8299158832
 20
-763.5432312461
 30
0.0
 40
0.1999999999999695
100
AcDbArc
 50
270.0
 51
315.0
  0
LINE
  5
27F
330
1F
100
AcDbEntity
  8
0
  6
Continuous
 62
     7
370
    15
100
AcDbLine
 10
1260.2529001264
 20
-761.6603885412
 30
0.0
 11
1260.2529001264
 21
-759.9432308793
 31
0.0
  0
LINE
  5
280
330
1F
100
AcDbEntity
  8
0
  6
Continuous
 62
     7
370
    15
100
AcDbLine
 10
1230.2529287366
 20
-759.9432308793
 30
0.0
 11
1230.2529287366
 21
-761.6603885412
 31
0.0
  0
ARC
  5
281
330
1F
100
AcDbEntity
  8
0
  6
Continuous
 62
     7
370
    15
100
AcDbCircle
 10
1230.4529268293
 20
-759.9432312461
 30
0.0
 40
0.2000000000000455
100
AcDbArc
 50
90.0
 51
180.0
  0
ARC
  5
282
330
1F
100
AcDbEntity
  8
0
  6
Continuous
 62
     7
370
    15
100
AcDbCircle
 10
1260.0529268293
 20
-759.9432312461
 30
0.0
 40
0.2000000000000455
100
AcDbArc
 50
0.0
 51
90.0
  0
ARC
  5
283
330
1F
100
AcDbEntity
  8
0
  6
Continuous
 62
     7
370
    15
100
AcDbCircle
 10
1260.0529268293
 20
-761.6603885337
 30
0.0
 40
0.1999999999998891
100
AcDbArc
 50
314.9999999999
 51
0.0
  0
ARC
  5
284
330
1F
100
AcDbEntity
  8
0
  6
Continuous
 62
     7
370
    15
100
AcDbCircle
 10
1230.4529268293
 20
-761.6603885337
 30
0.0
 40
0.2000000000000498
100
AcDbArc
 50
180.0
 51
225.0
  0
LINE
  5
285
330
1F
100
AcDbEntity
  8
0
  6
Continuous
 62
     7
370
    15
100
AcDbLine
 10
1230.3115797071
 20
-761.8018117368
 30
0.0
 11
1232.1943712262
 21
-763.6846516847
 31
0.0
  0
LINE
  5
286
330
1F
100
AcDbEntity
  8
0
  6
Continuous
 62
     7
370
    15
100
AcDbLine
 10
1258.3114576368
 20
-763.6846516847
 30
0.0
 11
1260.1942491559
 21
-761.8018117368
 31
0.0
  0
ARC
  5
287
330
1F
100
AcDbEntity
  8
0
  6
Continuous
 62
     7
370
    15
100
AcDbCircle
 10
1232.3357695417
 20
-763.5432312461
 30
0.0
 40
0.2000000000000455
100
AcDbArc
 50
225.0
 51
270.0
  0
ARC
  5
288
330
1F
100
AcDbEntity
  8
0
  6
Continuous
 62
     7
370
    15
100
AcDbCircle
 10
1258.1700841168
 20
-763.5432312461
 30
0.0
 40
0.2000000000000455
100
AcDbArc
 50
270.0
 51
315.0
  0
LINE
  5
289
330
1F
100
AcDbEntity
  8
0
  6
Continuous
 62
     7
370
    15
100
AcDbLine
 10
-7.7470469447
 20
-714.2000225007
 30
0.0
 11
-7.7470469447
 21
-715.9171798279
 31
0.0
  0
LINE
  5
28A
330
1F
100
AcDbEntity
  8
0
  6
Continuous
 62
     7
370
    15
100
AcDbLine
 10
22.2529244451
 20
-715.9171798279
 30
0.0
 11
22.2529244451
 21
-714.2000225007
 31
0.0
  0
ARC
  5
28B
330
1F
100
AcDbEntity
  8
0
  6
Continuous
 62
     7
370
    15
100
AcDbCircle
 10
-7.5470731707
 20
-714.2000225354
 30
0.0
 40
0.199999999999978
100
AcDbArc
 50
135.0
 51
180.0
  0
ARC
  5
28C
330
1F
100
AcDbEntity
  8
0
  6
Continuous
 62
     7
370
    15
100
AcDbCircle
 10
22.0529268293
 20
-714.2000225354
 30
0.0
 40
0.199999999999978
100
AcDbArc
 50
0.0
 51
45.0
  0
ARC
  5
28D
330
1F
100
AcDbEntity
  8
0
  6
Continuous
 62
     7
370
    15
100
AcDbCircle
 10
22.0529268293
 20
-715.9171798229
 30
0.0
 40
0.199999999999978
100
AcDbArc
 50
270.0
 51
0.0
  0
ARC
  5
28E
330
1F
100
AcDbEntity
  8
0
  6
Continuous
 62
     7
370
    15
100
AcDbCircle
 10
-7.5470731707
 20
-715.9171798229
 30
0.0
 40
0.199999999999978
100
AcDbArc
 50
180.0
 51
270.0
  0
LINE
  5
28F
330
1F
100
AcDbEntity
  8
0
  6
Continuous
 62
     7
370
    15
100
AcDbLine
 10
22.1943330793
 20
-714.0586011678
 30
0.0
 11
20.3114819555
 21
-712.1757584259
 31
0.0
  0
LINE
  5
290
330
1F
100
AcDbEntity
  8
0
  6
Continuous
 62
     7
370
    15
100
AcDbLine
 10
-5.8056640597
 20
-712.1757584259
 30
0.0
 11
-7.6885151835
 21
-714.0586011678
 31
0.0
  0
ARC
  5
291
330
1F
100
AcDbEntity
  8
0
  6
Continuous
 62
     7
370
    15
100
AcDbCircle
 10
20.1700841168
 20
-712.3171798229
 30
0.0
 40
0.199999999999972
100
AcDbArc
 50
45.0
 51
90.0
  0
ARC
  5
292
330
1F
100
AcDbEntity
  8
0
  6
Continuous
 62
     7
370
    15
100
AcDbCircle
 10
-5.6642304583
 20
-712.3171798229
 30
0.0
 40
0.1999999999999726
100
AcDbArc
 50
90.0
 51
135.0
  0
LINE
  5
293
330
1F
100
AcDbEntity
  8
0
  6
Continuous
 62
     7
370
    15
100
AcDbLine
 10
-707.7470722767
 20
-714.2000225007
 30
0.0
 11
-707.7470722767
 21
-715.9171798279
 31
0.0
  0
LINE
  5
294
330
1F
100
AcDbEntity
  8
0
  6
Continuous
 62
     7
370
    15
100
AcDbLine
 10
-677.7470710846
 20
-715.9171798279
 30
0.0
 11
-677.7470710846
 21
-714.2000225007
 31
0.0
  0
ARC
  5
295
330
1F
100
AcDbEntity
  8
0
  6
Continuous
 62
     7
370
    15
100
AcDbCircle
 10
-707.5470731707
 20
-714.2000225354
 30
0.0
 40
0.2000000000000498
100
AcDbArc
 50
135.0
 51
180.0
  0
ARC
  5
296
330
1F
100
AcDbEntity
  8
0
  6
Continuous
 62
     7
370
    15
100
AcDbCircle
 10
-677.9470731707
 20
-714.2000225354
 30
0.0
 40
0.2000000000000498
100
AcDbArc
 50
0.0
 51
45.0
  0
ARC
  5
297
330
1F
100
AcDbEntity
  8
0
  6
Continuous
 62
     7
370
    15
100
AcDbCircle
 10
-677.9470731707
 20
-715.9171798229
 30
0.0
 40
0.2000000000000455
100
AcDbArc
 50
270.0
 51
0.0
  0
ARC
  5
298
330
1F
100
AcDbEntity
  8
0
  6
Continuous
 62
     7
370
    15
100
AcDbCircle
 10
-707.5470731707
 20
-715.9171798229
 30
0.0
 40
0.2000000000000455
100
AcDbArc
 50
180.0
 51
270.0
  0
LINE
  5
299
330
1F
100
AcDbEntity
  8
0
  6
Continuous
 62
     7
370
    15
100
AcDbLine
 10
-677.8056549998
 20
-714.0586011678
 30
0.0
 11
-679.6884912225
 21
-712.1757584259
 31
0.0
  0
LINE
  5
29A
330
1F
100
AcDbEntity
  8
0
  6
Continuous
 62
     7
370
    15
100
AcDbLine
 10
-705.8056521388
 20
-712.1757584259
 30
0.0
 11
-707.688495812
 21
-714.0586011678
 31
0.0
  0
ARC
  5
29B
330
1F
100
AcDbEntity
  8
0
  6
Continuous
 62
     7
370
    15
100
AcDbCircle
 10
-679.8299158832
 20
-712.3171798229
 30
0.0
 40
0.1999999999999695
100
AcDbArc
 50
45.0
 51
90.0
  0
ARC
  5
29C
330
1F
100
AcDbEntity
  8
0
  6
Continuous
 62
     7
370
    15
100
AcDbCircle
 10
-705.6642304583
 20
-712.3171798229
 30
0.0
 40
0.1999999999999695
100
AcDbArc
 50
90.0
 51
135.0
  0
LINE
  5
29D
330
1F
100
AcDbEntity
  8
0
  6
Continuous
 62
     7
370
    15
100
AcDbLine
 10
-707.7470722767
 20
-765.1171785414
 30
0.0
 11
-705.7470756741
 21
-767.1171788692
 31
0.0
  0
LINE
  5
29E
330
1F
100
AcDbEntity
  8
0
  6
Continuous
 62
     7
370
    15
100
AcDbLine
 10
-679.7470751377
 20
-767.1171788692
 30
0.0
 11
-677.7470710846
 21
-765.1171785414
 31
0.0
  0
LINE
  5
29F
330
1F
100
AcDbEntity
  8
0
  6
Continuous
 62
     7
370
    15
100
AcDbLine
 10
-677.7470710846
 20
-765.1171785414
 30
0.0
 11
-677.7470710846
 21
-762.1171799123
 31
0.0
  0
LINE
  5
2A0
330
1F
100
AcDbEntity
  8
0
  6
Continuous
 62
     7
370
    15
100
AcDbLine
 10
-707.7470722767
 20
-762.1171799123
 30
0.0
 11
-707.7470722767
 21
-765.1171785414
 31
0.0
  0
LINE
  5
2A1
330
1F
100
AcDbEntity
  8
0
  6
Continuous
 62
     7
370
    15
100
AcDbLine
 10
22.2529244451
 20
-765.1171785414
 30
0.0
 11
22.2529244451
 21
-762.1171799123
 31
0.0
  0
LINE
  5
2A2
330
1F
100
AcDbEntity
  8
0
  6
Continuous
 62
     7
370
    15
100
AcDbLine
 10
-7.7470469447
 20
-762.1171799123
 30
0.0
 11
-7.7470469447
 21
-765.1171785414
 31
0.0
  0
LINE
  5
2A3
330
1F
100
AcDbEntity
  8
0
  6
Continuous
 62
     7
370
    15
100
AcDbLine
 10
-7.7470469447
 20
-765.1171785414
 30
0.0
 11
-5.7470726939
 21
-767.1171788692
 31
0.0
  0
LINE
  5
2A4
330
1F
100
AcDbEntity
  8
0
  6
Continuous
 62
     7
370
    15
100
AcDbLine
 10
20.2529501943
 20
-767.1171788692
 30
0.0
 11
22.2529244451
 21
-765.1171785414
 31
0.0
  0
ARC
  5
2A5
330
1F
100
AcDbEntity
  8
0
  6
Continuous
 62
     7
370
    15
100
AcDbCircle
 10
-707.5470731707
 20
-723.2000225354
 30
0.0
 40
0.1999999999999695
100
AcDbArc
 50
135.0
 51
180.0
  0
ARC
  5
2A6
330
1F
100
AcDbEntity
  8
0
  6
Continuous
 62
     7
370
    15
100
AcDbCircle
 10
-677.9470731707
 20
-723.2000225354
 30
0.0
 40
0.2000000000000455
100
AcDbArc
 50
0.0
 51
45.0
  0
LINE
  5
2A7
330
1F
100
AcDbEntity
  8
0
  6
Continuous
 62
     7
370
    15
100
AcDbLine
 10
-707.7470722767
 20
-723.200022579
 30
0.0
 11
-707.7470722767
 21
-723.9171796113
 31
0.0
  0
LINE
  5
2A8
330
1F
100
AcDbEntity
  8
0
  6
Continuous
 62
     7
370
    15
100
AcDbLine
 10
-677.7470710846
 20
-723.9171796113
 30
0.0
 11
-677.7470710846
 21
-723.200022579
 31
0.0
  0
ARC
  5
2A9
330
1F
100
AcDbEntity
  8
0
  6
Continuous
 62
     7
370
    15
100
AcDbCircle
 10
-677.9470731707
 20
-723.9171798229
 30
0.0
 40
0.2000000000000455
100
AcDbArc
 50
270.0
 51
0.0
  0
ARC
  5
2AA
330
1F
100
AcDbEntity
  8
0
  6
Continuous
 62
     7
370
    15
100
AcDbCircle
 10
-707.5470731707
 20
-723.9171798229
 30
0.0
 40
0.1999999999999318
100
AcDbArc
 50
180.0
 51
270.0
  0
LINE
  5
2AB
330
1F
100
AcDbEntity
  8
0
  6
Continuous
 62
     7
370
    15
100
AcDbLine
 10
-677.8056549998
 20
-723.058601246
 30
0.0
 11
-679.6884912225
 21
-721.1757585041
 31
0.0
  0
LINE
  5
2AC
330
1F
100
AcDbEntity
  8
0
  6
Continuous
 62
     7
370
    15
100
AcDbLine
 10
-705.8056521388
 20
-721.1757585041
 30
0.0
 11
-707.688495812
 21
-723.058601246
 31
0.0
  0
ARC
  5
2AD
330
1F
100
AcDbEntity
  8
0
  6
Continuous
 62
     7
370
    15
100
AcDbCircle
 10
-679.8299158832
 20
-721.3171798229
 30
0.0
 40
0.2000000000000498
100
AcDbArc
 50
45.0
 51
90.0
  0
ARC
  5
2AE
330
1F
100
AcDbEntity
  8
0
  6
Continuous
 62
     7
370
    15
100
AcDbCircle
 10
-705.6642304583
 20
-721.3171798229
 30
0.0
 40
0.1999999999999695
100
AcDbArc
 50
90.0
 51
135.0
  0
LINE
  5
2AF
330
1F
100
AcDbEntity
  8
0
  6
Continuous
 62
     7
370
    15
100
AcDbLine
 10
-682.9970705481
 20
-724.6171802848
 30
0.0
 11
-682.9970705481
 21
-724.1171802029
 31
0.0
  0
LINE
  5
2B0
330
1F
100
AcDbEntity
  8
0
  6
Continuous
 62
     7
370
    15
100
AcDbLine
 10
-702.4970728131
 20
-724.1171802029
 30
0.0
 11
-702.4970728131
 21
-724.6171802848
 31
0.0
  0
LINE
  5
2B1
330
1F
100
AcDbEntity
  8
0
  6
Continuous
 62
     7
370
    15
100
AcDbLine
 10
-7.7470469447
 20
-723.200022579
 30
0.0
 11
-7.7470469447
 21
-723.9171796113
 31
0.0
  0
LINE
  5
2B2
330
1F
100
AcDbEntity
  8
0
  6
Continuous
 62
     7
370
    15
100
AcDbLine
 10
22.2529244451
 20
-723.9171796113
 30
0.0
 11
22.2529244451
 21
-723.200022579
 31
0.0
  0
ARC
  5
2B3
330
1F
100
AcDbEntity
  8
0
  6
Continuous
 62
     7
370
    15
100
AcDbCircle
 10
22.0529268293
 20
-723.9171798229
 30
0.0
 40
0.199999999999978
100
AcDbArc
 50
270.0
 51
0.0
  0
ARC
  5
2B4
330
1F
100
AcDbEntity
  8
0
  6
Continuous
 62
     7
370
    15
100
AcDbCircle
 10
-7.5470731707
 20
-723.9171798229
 30
0.0
 40
0.199999999999978
100
AcDbArc
 50
180.0
 51
270.0
  0
ARC
  5
2B5
330
1F
100
AcDbEntity
  8
0
  6
Continuous
 62
     7
370
    15
100
AcDbCircle
 10
-7.5470731707
 20
-723.2000225354
 30
0.0
 40
0.199999999999978
100
AcDbArc
 50
135.0
 51
180.0
  0
ARC
  5
2B6
330
1F
100
AcDbEntity
  8
0
  6
Continuous
 62
     7
370
    15
100
AcDbCircle
 10
22.0529268293
 20
-723.2000225354
 30
0.0
 40
0.199999999999978
100
AcDbArc
 50
0.0
 51
45.0
  0
LINE
  5
2B7
330
1F
100
AcDbEntity
  8
0
  6
Continuous
 62
     7
370
    15
100
AcDbLine
 10
22.1943330793
 20
-723.058601246
 30
0.0
 11
20.3114819555
 21
-721.1757585041
 31
0.0
  0
LINE
  5
2B8
330
1F
100
AcDbEntity
  8
0
  6
Continuous
 62
     7
370
    15
100
AcDbLine
 10
-5.8056640597
 20
-721.1757585041
 30
0.0
 11
-7.6885151835
 21
-723.058601246
 31
0.0
  0
ARC
  5
2B9
330
1F
100
AcDbEntity
  8
0
  6
Continuous
 62
     7
370
    15
100
AcDbCircle
 10
20.1700841168
 20
-721.3171798229
 30
0.0
 40
0.2000000000000549
100
AcDbArc
 50
45.0
 51
90.0
  0
ARC
  5
2BA
330
1F
100
AcDbEntity
  8
0
  6
Continuous
 62
     7
370
    15
100
AcDbCircle
 10
-5.6642304583
 20
-721.3171798229
 30
0.0
 40
0.200000000000053
100
AcDbArc
 50
90.0
 51
135.0
  0
LINE
  5
2BB
330
1F
100
AcDbEntity
  8
0
  6
Continuous
 62
     7
370
    15
100
AcDbLine
 10
17.0029473333
 20
-724.6171802848
 30
0.0
 11
17.0029473333
 21
-724.1171802029
 31
0.0
  0
LINE
  5
2BC
330
1F
100
AcDbEntity
  8
0
  6
Continuous
 62
     7
370
    15
100
AcDbLine
 10
-2.4970698329
 20
-724.1171802029
 30
0.0
 11
-2.4970698329
 21
-724.6171802848
 31
0.0
  0
LINE
  5
2BD
330
1F
100
AcDbEntity
  8
0
  6
Continuous
 62
     7
370
    15
100
AcDbLine
 10
36.2529230146
 20
-745.6171800017
 30
0.0
 11
36.2529230146
 21
-744.1171806872
 31
0.0
  0
LINE
  5
2BE
330
1F
100
AcDbEntity
  8
0
  6
Continuous
 62
     7
370
    15
100
AcDbLine
 10
-21.7470455142
 20
-744.1171806872
 30
0.0
 11
-21.7470455142
 21
-745.6171800017
 31
0.0
  0
LINE
  5
2BF
330
1F
100
AcDbEntity
  8
0
  6
Continuous
 62
     7
370
    15
100
AcDbLine
 10
-663.7470799657
 20
-745.6171800017
 30
0.0
 11
-663.7470799657
 21
-744.1171806872
 31
0.0
  0
LINE
  5
2C0
330
1F
100
AcDbEntity
  8
0
  6
Continuous
 62
     7
370
    15
100
AcDbLine
 10
-721.7470708462
 20
-744.1171806872
 30
0.0
 11
-721.7470708462
 21
-745.6171800017
 31
0.0
  0
LINE
  5
2C1
330
1F
100
AcDbEntity
  8
0
  6
Continuous
 62
     7
370
    15
100
AcDbLine
 10
-21.7470455142
 20
-724.6171802848
 30
0.0
 11
-21.7470455142
 21
-726.1171795994
 31
0.0
  0
LINE
  5
2C2
330
1F
100
AcDbEntity
  8
0
  6
Continuous
 62
     7
370
    15
100
AcDbLine
 10
36.2529230146
 20
-726.1171795994
 30
0.0
 11
36.2529230146
 21
-724.6171802848
 31
0.0
  0
LINE
  5
2C3
330
1F
100
AcDbEntity
  8
0
  6
Continuous
 62
     7
370
    15
100
AcDbLine
 10
-721.7470708462
 20
-724.6171802848
 30
0.0
 11
-721.7470708462
 21
-726.1171795994
 31
0.0
  0
LINE
  5
2C4
330
1F
100
AcDbEntity
  8
0
  6
Continuous
 62
     7
370
    15
100
AcDbLine
 10
-663.7470799657
 20
-726.1171795994
 30
0.0
 11
-663.7470799657
 21
-724.6171802848
 31
0.0
  0
ARC
  5
2C5
330
1F
100
AcDbEntity
  8
0
  6
Continuous
 62
     7
370
    15
100
AcDbCircle
 10
45.8529268293
 20
-735.1432312461
 30
0.0
 40
12.50000000000001
100
AcDbArc
 50
140.1746287392
 51
219.8253712608
  0
ARC
  5
2C6
330
1F
100
AcDbEntity
  8
0
  6
Continuous
 62
     7
370
    15
100
AcDbCircle
 10
-31.3470731707
 20
-735.1432312461
 30
0.0
 40
12.50000000000001
100
AcDbArc
 50
320.1746287392
 51
39.8253712608
  0
LINE
  5
2C7
330
1F
100
AcDbEntity
  8
0
  6
Continuous
 62
     7
370
    15
100
AcDbLine
 10
36.2529230146
 20
-727.137608324
 30
0.0
 11
36.2529230146
 21
-726.1171795994
 31
0.0
  0
LINE
  5
2C8
330
1F
100
AcDbEntity
  8
0
  6
Continuous
 62
     7
370
    15
100
AcDbLine
 10
-21.7470455142
 20
-726.1171795994
 30
0.0
 11
-21.7470455142
 21
-727.137608324
 31
0.0
  0
LINE
  5
2C9
330
1F
100
AcDbEntity
  8
0
  6
Continuous
 62
     7
370
    15
100
AcDbLine
 10
36.2529230146
 20
-744.1171806872
 30
0.0
 11
36.2529230146
 21
-743.148854804
 31
0.0
  0
LINE
  5
2CA
330
1F
100
AcDbEntity
  8
0
  6
Continuous
 62
     7
370
    15
100
AcDbLine
 10
-21.7470455142
 20
-743.148854804
 30
0.0
 11
-21.7470455142
 21
-744.1171806872
 31
0.0
  0
ARC
  5
2CB
330
1F
100
AcDbEntity
  8
0
  6
Continuous
 62
     7
370
    15
100
AcDbCircle
 10
-654.1470731707
 20
-735.1432312461
 30
0.0
 40
12.50000000000016
100
AcDbArc
 50
140.1746287392
 51
219.8253712608
  0
ARC
  5
2CC
330
1F
100
AcDbEntity
  8
0
  6
Continuous
 62
     7
370
    15
100
AcDbCircle
 10
-731.3470731707
 20
-735.1432312461
 30
0.0
 40
12.49999999999999
100
AcDbArc
 50
320.1746287392
 51
39.8253712608
  0
LINE
  5
2CD
330
1F
100
AcDbEntity
  8
0
  6
Continuous
 62
     7
370
    15
100
AcDbLine
 10
-663.7470799657
 20
-727.137608324
 30
0.0
 11
-663.7470799657
 21
-726.1171795994
 31
0.0
  0
LINE
  5
2CE
330
1F
100
AcDbEntity
  8
0
  6
Continuous
 62
     7
370
    15
100
AcDbLine
 10
-721.7470708462
 20
-726.1171795994
 30
0.0
 11
-721.7470708462
 21
-727.137608324
 31
0.0
  0
LINE
  5
2CF
330
1F
100
AcDbEntity
  8
0
  6
Continuous
 62
     7
370
    15
100
AcDbLine
 10
-663.7470799657
 20
-744.1171806872
 30
0.0
 11
-663.7470799657
 21
-743.148854804
 31
0.0
  0
LINE
  5
2D0
330
1F
100
AcDbEntity
  8
0
  6
Continuous
 62
     7
370
    15
100
AcDbLine
 10
-721.7470708462
 20
-743.148854804
 30
0.0
 11
-721.7470708462
 21
-744.1171806872
 31
0.0
  0
LINE
  5
2D1
330
1F
100
AcDbEntity
  8
0
  6
Continuous
 62
     7
370
    15
100
AcDbLine
 10
22.2529244451
 20
-751.8171806454
 30
0.0
 11
22.2529244451
 21
-746.4171805054
 31
0.0
  0
LINE
  5
2D2
330
1F
100
AcDbEntity
  8
0
  6
Continuous
 62
     7
370
    15
100
AcDbLine
 10
-7.7470469447
 20
-746.4171805054
 30
0.0
 11
-7.7470469447
 21
-751.8171806454
 31
0.0
  0
LINE
  5
2D3
330
1F
100
AcDbEntity
  8
0
  6
Continuous
 62
     7
370
    15
100
AcDbLine
 10
22.2529244451
 20
-746.4171805054
 30
0.0
 11
21.9529342679
 21
-746.1171791523
 31
0.0
  0
LINE
  5
2D4
330
1F
100
AcDbEntity
  8
0
  6
Continuous
 62
     7
370
    15
100
AcDbLine
 10
-7.4470567675
 20
-746.1171791523
 30
0.0
 11
-7.7470469447
 21
-746.4171805054
 31
0.0
  0
LINE
  5
2D5
330
1F
100
AcDbEntity
  8
0
  6
Continuous
 62
     7
370
    15
100
AcDbLine
 10
-7.7470469447
 20
-751.8171806454
 30
0.0
 11
-7.4470567675
 21
-752.1171782732
 31
0.0
  0
LINE
  5
2D6
330
1F
100
AcDbEntity
  8
0
  6
Continuous
 62
     7
370
    15
100
AcDbLine
 10
21.9529342679
 20
-752.1171782732
 30
0.0
 11
22.2529244451
 21
-751.8171806454
 31
0.0
  0
LINE
  5
2D7
330
1F
100
AcDbEntity
  8
0
  6
Continuous
 62
     7
370
    15
100
AcDbLine
 10
17.0029473333
 20
-746.1171791523
 30
0.0
 11
17.0029473333
 21
-745.6171800017
 31
0.0
  0
LINE
  5
2D8
330
1F
100
AcDbEntity
  8
0
  6
Continuous
 62
     7
370
    15
100
AcDbLine
 10
-2.4970698329
 20
-745.6171800017
 30
0.0
 11
-2.4970698329
 21
-746.1171791523
 31
0.0
  0
LINE
  5
2D9
330
1F
100
AcDbEntity
  8
0
  6
Continuous
 62
     7
370
    15
100
AcDbLine
 10
-677.7470710846
 20
-751.8171806454
 30
0.0
 11
-677.7470710846
 21
-746.4171805054
 31
0.0
  0
LINE
  5
2DA
330
1F
100
AcDbEntity
  8
0
  6
Continuous
 62
     7
370
    15
100
AcDbLine
 10
-707.7470722767
 20
-746.4171805054
 30
0.0
 11
-707.7470722767
 21
-751.8171806454
 31
0.0
  0
LINE
  5
2DB
330
1F
100
AcDbEntity
  8
0
  6
Continuous
 62
     7
370
    15
100
AcDbLine
 10
-677.7470710846
 20
-746.4171805054
 30
0.0
 11
-678.0470761629
 21
-746.1171791523
 31
0.0
  0
LINE
  5
2DC
330
1F
100
AcDbEntity
  8
0
  6
Continuous
 62
     7
370
    15
100
AcDbLine
 10
-707.4470746489
 20
-746.1171791523
 30
0.0
 11
-707.7470722767
 21
-746.4171805054
 31
0.0
  0
LINE
  5
2DD
330
1F
100
AcDbEntity
  8
0
  6
Continuous
 62
     7
370
    15
100
AcDbLine
 10
-707.7470722767
 20
-751.8171806454
 30
0.0
 11
-707.4470746489
 21
-752.1171782732
 31
0.0
  0
LINE
  5
2DE
330
1F
100
AcDbEntity
  8
0
  6
Continuous
 62
     7
370
    15
100
AcDbLine
 10
-678.0470761629
 20
-752.1171782732
 30
0.0
 11
-677.7470710846
 21
-751.8171806454
 31
0.0
  0
LINE
  5
2DF
330
1F
100
AcDbEntity
  8
0
  6
Continuous
 62
     7
370
    15
100
AcDbLine
 10
-682.9970705481
 20
-746.1171791523
 30
0.0
 11
-682.9970705481
 21
-745.6171800017
 31
0.0
  0
LINE
  5
2E0
330
1F
100
AcDbEntity
  8
0
  6
Continuous
 62
     7
370
    15
100
AcDbLine
 10
-702.4970728131
 20
-745.6171800017
 30
0.0
 11
-702.4970728131
 21
-746.1171791523
 31
0.0
  0
LINE
  5
2E1
330
1F
100
AcDbEntity
  8
0
  6
Continuous
 62
     7
370
    15
100
AcDbLine
 10
-55.1970529528
 20
-747.6432312846
 30
0.0
 11
-55.1970529528
 21
-748.3309310496
 31
0.0
  0
LINE
  5
2E2
330
1F
100
AcDbEntity
  8
0
  6
Continuous
 62
     7
370
    15
100
AcDbLine
 10
-40.2970838519
 20
-748.3309310496
 30
0.0
 11
-40.2970838519
 21
-747.6432312846
 31
0.0
  0
LINE
  5
2E3
330
1F
100
AcDbEntity
  8
0
  6
Continuous
 62
     7
370
    15
100
AcDbLine
 10
-55.1970529528
 20
-748.3309310496
 30
0.0
 11
-54.1970658274
 21
-749.3309330761
 31
0.0
  0
LINE
  5
2E4
330
1F
100
AcDbEntity
  8
0
  6
Continuous
 62
     7
370
    15
100
AcDbLine
 10
-41.2970709773
 20
-749.3309330761
 30
0.0
 11
-40.2970838519
 21
-748.3309310496
 31
0.0
  0
LINE
  5
2E5
330
1F
100
AcDbEntity
  8
0
  6
Continuous
 62
     7
370
    15
100
AcDbLine
 10
1171.8029451398
 20
-747.6432312846
 30
0.0
 11
1171.8029451398
 21
-748.3309310496
 31
0.0
  0
LINE
  5
2E6
330
1F
100
AcDbEntity
  8
0
  6
Continuous
 62
     7
370
    15
100
AcDbLine
 10
1186.7029142408
 20
-748.3309310496
 30
0.0
 11
1186.7029142408
 21
-747.6432312846
 31
0.0
  0
LINE
  5
2E7
330
1F
100
AcDbEntity
  8
0
  6
Continuous
 62
     7
370
    15
100
AcDbLine
 10
1171.8029451398
 20
-748.3309310496
 30
0.0
 11
1172.8028726606
 21
-749.3309330761
 31
0.0
  0
LINE
  5
2E8
330
1F
100
AcDbEntity
  8
0
  6
Continuous
 62
     7
370
    15
100
AcDbLine
 10
1185.7028675107
 20
-749.3309330761
 30
0.0
 11
1186.7029142408
 21
-748.3309310496
 31
0.0
  0
LINE
  5
2E9
330
1F
100
AcDbEntity
  8
0
  6
Continuous
 62
     7
370
    15
100
AcDbLine
 10
-668.1970733376
 20
-747.6432312846
 30
0.0
 11
-668.1970733376
 21
-748.3309310496
 31
0.0
  0
LINE
  5
2EA
330
1F
100
AcDbEntity
  8
0
  6
Continuous
 62
     7
370
    15
100
AcDbLine
 10
-653.2970744343
 20
-748.3309310496
 30
0.0
 11
-653.2970744343
 21
-747.6432312846
 31
0.0
  0
LINE
  5
2EB
330
1F
100
AcDbEntity
  8
0
  6
Continuous
 62
     7
370
    15
100
AcDbLine
 10
-668.1970733376
 20
-748.3309310496
 30
0.0
 11
-667.1970713111
 21
-749.3309330761
 31
0.0
  0
LINE
  5
2EC
330
1F
100
AcDbEntity
  8
0
  6
Continuous
 62
     7
370
    15
100
AcDbLine
 10
-654.2970764609
 20
-749.3309330761
 30
0.0
 11
-653.2970744343
 21
-748.3309310496
 31
0.0
  0
LINE
  5
2ED
330
1F
100
AcDbEntity
  8
0
  6
Continuous
 62
     7
370
    15
100
AcDbLine
 10
558.8029098539
 20
-747.6432312846
 30
0.0
 11
558.8029098539
 21
-748.3309310496
 31
0.0
  0
LINE
  5
2EE
330
1F
100
AcDbEntity
  8
0
  6
Continuous
 62
     7
370
    15
100
AcDbLine
 10
573.7028789548
 20
-748.3309310496
 30
0.0
 11
573.7028789548
 21
-747.6432312846
 31
0.0
  0
LINE
  5
2EF
330
1F
100
AcDbEntity
  8
0
  6
Continuous
 62
     7
370
    15
100
AcDbLine
 10
558.8029098539
 20
-748.3309310496
 30
0.0
 11
559.8029565839
 21
-749.3309330761
 31
0.0
  0
LINE
  5
2F0
330
1F
100
AcDbEntity
  8
0
  6
Continuous
 62
     7
370
    15
100
AcDbLine
 10
572.7029514341
 20
-749.3309330761
 30
0.0
 11
573.7028789548
 21
-748.3309310496
 31
0.0
  0
LINE
  5
2F1
330
1F
100
AcDbEntity
  8
0
  6
Continuous
 62
     7
370
    15
100
AcDbLine
 10
-685.7470723959
 20
-701.6432311952
 30
0.0
 11
-685.7470723959
 21
-703.643231523
 31
0.0
  0
LINE
  5
2F2
330
1F
100
AcDbEntity
  8
0
  6
Continuous
 62
     7
370
    15
100
AcDbLine
 10
-635.7470679255
 20
-703.643231523
 30
0.0
 11
-635.7470679255
 21
-701.6432311952
 31
0.0
  0
LINE
  5
2F3
330
1F
100
AcDbEntity
  8
0
  6
Continuous
 62
     7
370
    15
100
AcDbLine
 10
-685.7470723959
 20
-703.643231523
 30
0.0
 11
-684.7470703693
 21
-704.6432316869
 31
0.0
  0
LINE
  5
2F4
330
1F
100
AcDbEntity
  8
0
  6
Continuous
 62
     7
370
    15
100
AcDbLine
 10
-636.7470699521
 20
-704.6432316869
 30
0.0
 11
-635.7470679255
 21
-703.643231523
 31
0.0
  0
LINE
  5
2F5
330
1F
100
AcDbEntity
  8
0
  6
Continuous
 62
     7
370
    15
100
AcDbLine
 10
1154.2529535321
 20
-701.6432311952
 30
0.0
 11
1154.2529535321
 21
-703.643231523
 31
0.0
  0
LINE
  5
2F6
330
1F
100
AcDbEntity
  8
0
  6
Continuous
 62
     7
370
    15
100
AcDbLine
 10
1204.2529058484
 20
-703.643231523
 30
0.0
 11
1204.2529058484
 21
-701.6432311952
 31
0.0
  0
LINE
  5
2F7
330
1F
100
AcDbEntity
  8
0
  6
Continuous
 62
     7
370
    15
100
AcDbLine
 10
1154.2529535321
 20
-703.643231523
 30
0.0
 11
1155.2528810529
 21
-704.6432316869
 31
0.0
  0
LINE
  5
2F8
330
1F
100
AcDbEntity
  8
0
  6
Continuous
 62
     7
370
    15
100
AcDbLine
 10
1203.2529783277
 20
-704.6432316869
 30
0.0
 11
1204.2529058484
 21
-703.643231523
 31
0.0
  0
LINE
  5
2F9
330
1F
100
AcDbEntity
  8
0
  6
Continuous
 62
     7
370
    15
100
AcDbLine
 10
-72.7470445605
 20
-701.6432311952
 30
0.0
 11
-72.7470445605
 21
-703.643231523
 31
0.0
  0
LINE
  5
2FA
330
1F
100
AcDbEntity
  8
0
  6
Continuous
 62
     7
370
    15
100
AcDbLine
 10
-22.7470922442
 20
-703.643231523
 30
0.0
 11
-22.7470922442
 21
-701.6432311952
 31
0.0
  0
LINE
  5
2FB
330
1F
100
AcDbEntity
  8
0
  6
Continuous
 62
     7
370
    15
100
AcDbLine
 10
-72.7470445605
 20
-703.643231523
 30
0.0
 11
-71.7470574351
 21
-704.6432316869
 31
0.0
  0
LINE
  5
2FC
330
1F
100
AcDbEntity
  8
0
  6
Continuous
 62
     7
370
    15
100
AcDbLine
 10
-23.7470793696
 20
-704.6432316869
 30
0.0
 11
-22.7470922442
 21
-703.643231523
 31
0.0
  0
LINE
  5
2FD
330
1F
100
AcDbEntity
  8
0
  6
Continuous
 62
     7
370
    15
100
AcDbLine
 10
541.2529182462
 20
-701.6432311952
 30
0.0
 11
541.2529182462
 21
-703.643231523
 31
0.0
  0
LINE
  5
2FE
330
1F
100
AcDbEntity
  8
0
  6
Continuous
 62
     7
370
    15
100
AcDbLine
 10
591.2528705625
 20
-703.643231523
 30
0.0
 11
591.2528705625
 21
-701.6432311952
 31
0.0
  0
LINE
  5
2FF
330
1F
100
AcDbEntity
  8
0
  6
Continuous
 62
     7
370
    15
100
AcDbLine
 10
541.2529182462
 20
-703.643231523
 30
0.0
 11
542.2529649762
 21
-704.6432316869
 31
0.0
  0
LINE
  5
300
330
1F
100
AcDbEntity
  8
0
  6
Continuous
 62
     7
370
    15
100
AcDbLine
 10
590.2529430417
 20
-704.6432316869
 30
0.0
 11
591.2528705625
 21
-703.643231523
 31
0.0
  0
LINE
  5
301
330
1F
100
AcDbEntity
  8
0
  6
Continuous
 62
     7
370
    15
100
AcDbLine
 10
1309.2529249219
 20
-747.6432312846
 30
0.0
 11
1309.2529249219
 21
-722.6432313777
 31
0.0
  0
LINE
  5
302
330
1F
100
AcDbEntity
  8
0
  6
Continuous
 62
     7
370
    15
100
AcDbLine
 10
-790.7470730757
 20
-747.6432312846
 30
0.0
 11
-790.7470730757
 21
-722.6432313777
 31
0.0
  0
LWPOLYLINE
  5
303
330
1F
100
AcDbEntity
  8
0
  6
Continuous
 62
     7
370
    15
100
AcDbPolyline
 90
       13
 70
   128
 43
0.0
 10
1171.7348766355
 20
-747.6241279959
 10
1171.972222331
 20
-747.4824589312
 10
1172.8287410764
 20
-746.9972137928
 10
1174.3319702176
 20
-746.2546498149
 10
1176.5959930448
 20
-745.4537571042
 10
1178.675599101
 20
-745.1222491085
 10
1180.8304262189
 20
-745.2296622663
 10
1182.7129793195
 20
-745.6893053472
 10
1184.5371198682
 20
-746.4202259302
 10
1186.0736084012
 20
-747.2167376995
 10
1186.7724132566
 20
-747.6248581528
 10
1186.8029308347
 20
-747.6432312846
 10
1186.8029308347
 20
-747.6432312846
  0
LWPOLYLINE
  5
304
330
1F
100
AcDbEntity
  8
0
  6
Continuous
 62
     7
370
    15
100
AcDbPolyline
 90
       13
 70
   128
 43
0.0
 10
-55.2651214572
 20
-747.6241279959
 10
-55.0277757617
 20
-747.4824589312
 10
-54.1711974116
 20
-746.9972137928
 10
-52.6680874797
 20
-746.2546498149
 10
-50.4040646525
 20
-745.4537571042
 10
-48.3243989917
 20
-745.1222491085
 10
-46.1695718737
 20
-745.2296622663
 10
-44.2869591685
 20
-745.6893053472
 10
-42.4628186198
 20
-746.4202259302
 10
-40.9263896914
 20
-747.2167376995
 10
-40.2275252314
 20
-747.6248581528
 10
-40.197067258
 20
-747.6432312846
 10
-40.197067258
 20
-747.6432312846
  0
SPLINE
  5
305
330
1F
100
AcDbEntity
  8
0
  6
Continuous
 62
     7
370
    15
100
AcDbSpline
210
0.0
220
0.0
230
1.0
 70
     8
 71
     3
 72
    11
 73
     7
 74
     0
 42
0.00000001
 43
0.00000001
 40
0.0
 40
0.0
 40
0.0
 40
0.0
 40
0.2319972353198426
 40
0.4848991721182347
 40
0.7641985638151138
 40
0.9999999999999999
 40
0.9999999999999999
 40
0.9999999999999999
 40
0.9999999999999999
 10
-668.2651120396356
 20
-747.6241279959336
 30
0.0
 10
-668.225205314492
 20
-747.598909378372
 30
0.0
 10
-668.141795967146
 20
-747.546199755515
 30
0.0
 10
-667.2007702420245
 20
-747.0086411573802
 30
0.0
 10
-665.8583836828584
 20
-746.2767168675284
 30
0.0
 10
-664.5693058487924
 20
-745.8517565731992
 30
0.0
 10
-663.9791953535776
 20
-745.6572194218293
 30
0.0
  0
SPLINE
  5
306
330
1F
100
AcDbEntity
  8
0
  6
Continuous
 62
     7
370
    15
100
AcDbSpline
210
0.0
220
0.0
230
1.0
 70
     8
 71
     3
 72
    15
 73
    11
 74
     0
 42
0.00000001
 43
0.00000001
 40
0.0
 40
0.0
 40
0.0
 40
0.0
 40
0.0272757129752167
 40
0.168362218560312
 40
0.309881268437726
 40
0.4441357740810374
 40
0.5989935777229357
 40
0.7798916628085647
 40
0.9555982730211056
 40
0.9999999999999999
 40
0.9999999999999999
 40
0.9999999999999999
 40
0.9999999999999999
 10
-663.747079965661
 20
-745.5751065730706
 30
0.0
 10
-663.634371976187
 20
-745.5334637552608
 30
0.0
 10
-662.9386700095864
 20
-745.2764190649922
 30
0.0
 10
-661.3134640193707
 20
-745.0542970083682
 30
0.0
 10
-659.1784313806211
 20
-745.1558216217024
 30
0.0
 10
-657.1408115076832
 20
-745.6880577323105
 30
0.0
 10
-655.2839698455999
 20
-746.470348056698
 30
0.0
 10
-653.8075514995177
 20
-747.2730775075217
 30
0.0
 10
-653.2346730423963
 20
-747.6206443184134
 30
0.0
 10
-653.2033844798345
 20
-747.639439745278
 30
0.0
 10
-653.197072741578
 20
-747.6432312845841
 30
0.0
  0
LWPOLYLINE
  5
307
330
1F
100
AcDbEntity
  8
0
  6
Continuous
 62
     7
370
    15
100
AcDbPolyline
 90
       13
 70
   128
 43
0.0
 10
558.7348413495
 20
-747.6241279959
 10
558.972187045
 20
-747.4824589312
 10
559.8288249997
 20
-746.9972137928
 10
561.3319349317
 20
-746.2546498149
 10
563.5959577588
 20
-745.4537571042
 10
565.675563815
 20
-745.1222491085
 10
567.8305101423
 20
-745.2296622663
 10
569.7130632428
 20
-745.6893053472
 10
571.5372037915
 20
-746.4202259302
 10
573.0736923246
 20
-747.2167376995
 10
573.7724971799
 20
-747.6248581528
 10
573.8028955488
 20
-747.6432312846
 10
573.8028955488
 20
-747.6432312846
  0
LINE
  5
308
330
1F
100
AcDbEntity
  8
0
  6
Continuous
 62
     7
370
    15
100
AcDbLine
 10
-707.7470722767
 20
-751.7432299077
 30
0.0
 11
-746.7470730813
 21
-751.7432299077
 31
0.0
  0
LINE
  5
309
330
1F
100
AcDbEntity
  8
0
  6
Continuous
 62
     7
370
    15
100
AcDbLine
 10
-707.7470722767
 20
-759.743231219
 30
0.0
 11
-746.7470730813
 21
-759.743231219
 31
0.0
  0
LINE
  5
30A
330
1F
100
AcDbEntity
  8
0
  6
Continuous
 62
     7
370
    15
100
AcDbLine
 10
1265.2530145673
 20
-759.743231219
 30
0.0
 11
1225.2528142957
 21
-759.743231219
 31
0.0
  0
LINE
  5
30B
330
1F
100
AcDbEntity
  8
0
  6
Continuous
 62
     7
370
    15
100
AcDbLine
 10
1265.2530145673
 20
-751.7432299077
 30
0.0
 11
1225.2528142957
 21
-751.7432299077
 31
0.0
  0
SPLINE
  5
30C
330
1F
100
AcDbEntity
  8
0
  6
Continuous
 62
     7
370
    15
100
AcDbSpline
210
0.0
220
0.0
230
1.0
 70
     8
 71
     3
 72
    22
 73
    18
 74
     0
 42
0.00000001
 43
0.00000001
 40
0.0
 40
0.0
 40
0.0
 40
0.0
 40
0.0424483305894134
 40
0.1226355444865041
 40
0.2089114796548014
 40
0.3120065733964079
 40
0.3621946668693053
 40
0.4135778949204326
 40
0.4821779362457962
 40
0.5511346115099344
 40
0.6347836780992994
 40
0.6944717311157833
 40
0.7558514469709039
 40
0.8161937454947664
 40
0.8787131152077516
 40
0.9629715338741132
 40
1.0
 40
1.0
 40
1.0
 40
1.0
 10
1261.15197658818
 20
-747.6148482978001
 30
0.0
 10
1261.17194329022
 20
-747.640316177957
 30
0.0
 10
1261.22962818247
 20
-747.7138942741171
 30
0.0
 10
1260.513488241696
 20
-746.8005529877831
 30
0.0
 10
1259.180943384522
 20
-745.0173615151214
 30
0.0
 10
1257.668854161286
 20
-742.776563897067
 30
0.0
 10
1256.45649306052
 20
-740.5341147902218
 30
0.0
 10
1255.585226963001
 20
-738.4691183059113
 30
0.0
 10
1254.996412455306
 20
-735.897607700898
 30
0.0
 10
1255.239161583885
 20
-732.7635739494407
 30
0.0
 10
1256.270966226828
 20
-730.0746021241124
 30
0.0
 10
1257.492893791482
 20
-727.8418064798445
 30
0.0
 10
1258.610476878229
 20
-726.107471857093
 30
0.0
 10
1259.666049919583
 20
-724.6183743892858
 30
0.0
 10
1260.642330306028
 20
-723.3204927617793
 30
0.0
 10
1261.188476237808
 20
-722.6252156342445
 30
0.0
 10
1261.237776459957
 20
-722.5624064948032
 30
0.0
 10
1261.25282764714
 20
-722.5432310819283
 30
0.0
  0
SPLINE
  5
30D
330
1F
100
AcDbEntity
  8
0
  6
Continuous
 62
     7
370
    15
100
AcDbSpline
210
0.0
220
0.0
230
1.0
 70
     8
 71
     3
 72
    22
 73
    18
 74
     0
 42
0.00000001
 43
0.00000001
 40
0.0
 40
0.0
 40
0.0
 40
0.0
 40
0.0870778403454889
 40
0.1738029258863555
 40
0.2313481268757808
 40
0.290552742749951
 40
0.3488889088919842
 40
0.4089781095036195
 40
0.4779433259209486
 40
0.5473133295584972
 40
0.6291786097915919
 40
0.688136513831819
 40
0.7487573015990548
 40
0.8086815266443812
 40
0.8706624280839645
 40
0.9564113593477701
 40
1.0
 40
1.0
 40
1.0
 40
1.0
 10
1229.253001215865
 20
-722.5432310819283
 30
0.0
 10
1229.335654002903
 20
-722.6473652603881
 30
0.0
 10
1229.500624748189
 20
-722.855211766793
 30
0.0
 10
1230.547048170469
 20
-724.21662813924
 30
0.0
 10
1231.673780756465
 20
-725.7874620853146
 30
0.0
 10
1232.744942940993
 20
-727.4076948249685
 30
0.0
 10
1233.825207536508
 20
-729.2862247098986
 30
0.0
 10
1234.830335856675
 20
-731.520204284569
 30
0.0
 10
1235.493316511196
 20
-734.2005794567884
 30
0.0
 10
1235.311183144905
 20
-737.3286844517197
 30
0.0
 10
1234.324326149066
 20
-740.0163104190748
 30
0.0
 10
1233.133739094353
 20
-742.2417627549019
 30
0.0
 10
1232.026871192482
 20
-743.9846955287572
 30
0.0
 10
1230.962118359474
 20
-745.5003499378088
 30
0.0
 10
1229.967801270242
 20
-746.831903331203
 30
0.0
 10
1229.278964039038
 20
-747.7101860246183
 30
0.0
 10
1229.334975573888
 20
-747.6388795990885
 30
0.0
 10
1229.353852274825
 20
-747.6148482978001
 30
0.0
  0
LINE
  5
30E
330
1F
100
AcDbEntity
  8
0
  6
Continuous
 62
     7
370
    15
100
AcDbLine
 10
1261.2528276471
 20
-720.9432314716
 30
0.0
 11
1229.2530012159
 21
-720.9432314716
 31
0.0
  0
LINE
  5
30F
330
1F
100
AcDbEntity
  8
0
  6
Continuous
 62
     7
370
    15
100
AcDbLine
 10
1231.0528230695
 20
-719.1432312697
 30
0.0
 11
1259.4530057935
 21
-719.1432312697
 31
0.0
  0
SPLINE
  5
310
330
1F
100
AcDbEntity
  8
0
  6
Continuous
 62
     7
370
    15
100
AcDbSpline
210
0.0
220
0.0
230
1.0
 70
     8
 71
     3
 72
    10
 73
     6
 74
     0
 42
0.00000001
 43
0.00000001
 40
0.0
 40
0.0
 40
0.0
 40
0.0
 40
0.2371444569449863
 40
0.6851242926397828
 40
0.9999999999999999
 40
0.9999999999999999
 40
0.9999999999999999
 40
0.9999999999999999
 10
-710.8479741187791
 20
-747.6148482978001
 30
0.0
 10
-710.8289317329741
 20
-747.6386823567422
 30
0.0
 10
-710.773917159693
 20
-747.7075403557176
 30
0.0
 10
-711.3575401221841
 20
-746.9778011259215
 30
0.0
 10
-712.0606572942957
 20
-746.01470632264
 30
0.0
 10
-712.3508754344682
 20
-745.6171800017014
 30
0.0
  0
SPLINE
  5
311
330
1F
100
AcDbEntity
  8
0
  6
Continuous
 62
     7
370
    15
100
AcDbSpline
210
0.0
220
0.0
230
1.0
 70
     8
 71
     3
 72
    10
 73
     6
 74
     0
 42
0.00000001
 43
0.00000001
 40
0.0
 40
0.0
 40
0.0
 40
0.0
 40
0.3258668895889891
 40
0.7941891158210508
 40
1.0
 40
1.0
 40
1.0
 40
1.0
 10
-712.3223322602014
 20
-724.6171802848235
 30
0.0
 10
-712.034088712597
 20
-724.2283008449429
 30
0.0
 10
-711.3315936278659
 20
-723.2805401844187
 30
0.0
 10
-710.8132150117566
 20
-722.6280095398172
 30
0.0
 10
-710.7625414095861
 20
-722.5630599909097
 30
0.0
 10
-710.747070905755
 20
-722.5432310819283
 30
0.0
  0
SPLINE
  5
312
330
1F
100
AcDbEntity
  8
0
  6
Continuous
 62
     7
370
    15
100
AcDbSpline
210
0.0
220
0.0
230
1.0
 70
     8
 71
     3
 72
    22
 73
    18
 74
     0
 42
0.00000001
 43
0.00000001
 40
0.0
 40
0.0
 40
0.0
 40
0.0
 40
0.087077761569607
 40
0.1738038466755083
 40
0.2313481938797203
 40
0.2905521466967761
 40
0.3488893421791229
 40
0.4089778387618718
 40
0.4779436857960283
 40
0.5473137237998241
 40
0.6291798655174823
 40
0.6881376889931705
 40
0.7487575738484309
 40
0.808681939450235
 40
0.8706630809709309
 40
0.9564113612324086
 40
1.0
 40
1.0
 40
1.0
 40
1.0
 10
-742.7470724256734
 20
-722.5432310819283
 30
0.0
 10
-742.664448772289
 20
-722.6473684710709
 30
0.0
 10
-742.4995351534068
 20
-722.8552226750545
 30
0.0
 10
-741.452857562397
 20
-724.2166048543147
 30
0.0
 10
-740.3262714159366
 20
-725.7874614954787
 30
0.0
 10
-739.2552063267594
 20
-727.4077312428169
 30
0.0
 10
-738.174746402765
 20
-729.2861808038566
 30
0.0
 10
-737.1698239945769
 20
-731.5202444314622
 30
0.0
 10
-736.5065905058066
 20
-734.2005557338774
 30
0.0
 10
-736.6888167408503
 20
-737.3287095724355
 30
0.0
 10
-737.675802923041
 20
-740.0162922718862
 30
0.0
 10
-738.8663836465646
 20
-742.2417478286214
 30
0.0
 10
-739.9731376491691
 20
-743.9847141109431
 30
0.0
 10
-741.0379145450466
 20
-745.5003489935552
 30
0.0
 10
-742.0323185904995
 20
-746.831895264425
 30
0.0
 10
-742.7209135131553
 20
-747.7101875393955
 30
0.0
 10
-742.6650097030673
 20
-747.6388800708661
 30
0.0
 10
-742.6461692126493
 20
-747.6148482978001
 30
0.0
  0
LINE
  5
313
330
1F
100
AcDbEntity
  8
0
  6
Continuous
 62
     7
370
    15
100
AcDbLine
 10
-710.7470709058
 20
-720.9432314716
 30
0.0
 11
-742.7470724257
 21
-720.9432314716
 31
0.0
  0
LINE
  5
314
330
1F
100
AcDbEntity
  8
0
  6
Continuous
 62
     7
370
    15
100
AcDbLine
 10
-740.9470717581
 20
-719.1432312697
 30
0.0
 11
-712.5470715733
 21
-719.1432312697
 31
0.0
  0
LWPOLYLINE
  5
315
330
1F
100
AcDbEntity
  8
0
  6
Continuous
 62
     7
370
    15
100
AcDbPolyline
 90
       13
 70
   128
 43
0.0
 10
573.7250518827
 20
-722.65976701
 10
573.4774541883
 20
-722.8065467074
 10
572.6161670713
 20
-723.2903468988
 10
571.1094808606
 20
-724.026301746
 10
568.8492727308
 20
-724.811671172
 10
566.779322627
 20
-725.1293872118
 10
564.640946391
 20
-725.0141425624
 10
562.7672147779
 20
-724.5531136736
 10
560.9552335767
 20
-723.8266382932
 10
559.4464015989
 20
-723.0465774059
 10
558.7776374845
 20
-722.6580761939
 10
558.7529611615
 20
-722.6432313777
 10
558.7529611615
 20
-722.6432313777
  0
SPLINE
  5
316
330
1F
100
AcDbEntity
  8
0
  6
Continuous
 62
     7
370
    15
100
AcDbSpline
210
0.0
220
0.0
230
1.0
 70
     8
 71
     3
 72
    14
 73
    10
 74
     0
 42
0.00000001
 43
0.00000001
 40
0.0
 40
0.0
 40
0.0
 40
0.0
 40
0.1341811349410295
 40
0.2784527083116963
 40
0.4378221894076909
 40
0.6177869262443828
 40
0.7587634608627669
 40
0.9001421176368419
 40
0.9999999999999999
 40
0.9999999999999999
 40
0.9999999999999999
 40
0.9999999999999999
 10
-653.2749313088159
 20
-722.6597670100286
 30
0.0
 10
-653.3182169143375
 20
-722.6861967119789
 30
0.0
 10
-653.4080432084266
 20
-722.7410436328307
 30
0.0
 10
-654.3466297641161
 20
-723.2842745910198
 30
0.0
 10
-655.8741572985624
 20
-724.0593095109181
 30
0.0
 10
-657.9137105140221
 20
-724.8290544054178
 30
0.0
 10
-660.204108520812
 20
-725.2040749186569
 30
0.0
 10
-662.1985855310155
 20
-725.1103247635103
 30
0.0
 10
-663.2937469137316
 20
-724.8007698670325
 30
0.0
 10
-663.747079965661
 20
-724.6726321622386
 30
0.0
  0
SPLINE
  5
317
330
1F
100
AcDbEntity
  8
0
  6
Continuous
 62
     7
370
    15
100
AcDbSpline
210
0.0
220
0.0
230
1.0
 70
     8
 71
     3
 72
    12
 73
     8
 74
     0
 42
0.00000001
 43
0.00000001
 40
0.0
 40
0.0
 40
0.0
 40
0.0
 40
0.0383388761213593
 40
0.3096579525861297
 40
0.6250743344160644
 40
0.9299979209866321
 40
1.0
 40
1.0
 40
1.0
 40
1.0
 10
-663.9272201033334
 20
-724.6283105209127
 30
0.0
 10
-664.0299382904889
 20
-724.6038785388162
 30
0.0
 10
-664.8595792905855
 20
-724.4065447012329
 30
0.0
 10
-666.2008973738695
 20
-723.7578879024741
 30
0.0
 10
-667.6769346719127
 20
-722.9959723505219
 30
0.0
 10
-668.2140987224476
 20
-722.6625059245279
 30
0.0
 10
-668.2418860362857
 20
-722.6462639113473
 30
0.0
 10
-668.2470741840104
 20
-722.6432313777163
 30
0.0
  0
LWPOLYLINE
  5
318
330
1F
100
AcDbEntity
  8
0
  6
Continuous
 62
     7
370
    15
100
AcDbPolyline
 90
       13
 70
   128
 43
0.0
 10
-40.274910924
 20
-722.65976701
 10
-40.5225682231
 20
-722.8065467074
 10
-41.3838553401
 20
-723.2903468988
 10
-42.8905415507
 20
-724.026301746
 10
-45.1506900759
 20
-724.811671172
 10
-47.2206997843
 20
-725.1293872118
 10
-49.3590164157
 20
-725.0141425624
 10
-51.2328672381
 20
-724.5531136736
 10
-53.04472923
 20
-723.8266382932
 10
-54.5536208125
 20
-723.0465774059
 10
-55.2223253222
 20
-722.6580761939
 10
-55.2470612498
 20
-722.6432313777
 10
-55.2470612498
 20
-722.6432313777
  0
LWPOLYLINE
  5
319
330
1F
100
AcDbEntity
  8
0
  6
Continuous
 62
     7
370
    15
100
AcDbPolyline
 90
       13
 70
   128
 43
0.0
 10
1186.7250871686
 20
-722.65976701
 10
1186.4774894742
 20
-722.8065467074
 10
1185.6162023572
 20
-723.2903468988
 10
1184.1095161466
 20
-724.026301746
 10
1181.8493080167
 20
-724.811671172
 10
1179.7792387037
 20
-725.1293872118
 10
1177.640981677
 20
-725.0141425624
 10
1175.7671308545
 20
-724.5531136736
 10
1173.9552688627
 20
-723.8266382932
 10
1172.4464368848
 20
-723.0465774059
 10
1171.7776727704
 20
-722.6580761939
 10
1171.7528772382
 20
-722.6432313777
 10
1171.7528772382
 20
-722.6432313777
  0
LINE
  5
31A
330
1F
100
AcDbEntity
  8
0
  6
Continuous
 62
     7
370
    15
100
AcDbLine
 10
-792.5470731758
 20
-722.6440108947
 30
0.0
 11
-792.5470731758
 21
-747.6432312846
 31
0.0
  0
LINE
  5
31B
330
1F
100
AcDbEntity
  8
0
  6
Continuous
 62
     7
370
    15
100
AcDbLine
 10
-792.7470731707
 20
-747.4432316243
 30
0.0
 11
-792.7470731707
 21
-722.8439984478
 31
0.0
  0
LINE
  5
31C
330
1F
100
AcDbEntity
  8
0
  6
Continuous
 62
     7
370
    15
100
AcDbLine
 10
-790.9470732017
 20
-747.6432312846
 30
0.0
 11
-790.9470732017
 21
-722.6440108947
 31
0.0
  0
LINE
  5
31D
330
1F
100
AcDbEntity
  8
0
  6
Continuous
 62
     7
370
    15
100
AcDbLine
 10
1311.0529851941
 20
-747.6428103268
 30
0.0
 11
1311.0529851941
 21
-722.6432313777
 31
0.0
  0
LINE
  5
31E
330
1F
100
AcDbEntity
  8
0
  6
Continuous
 62
     7
370
    15
100
AcDbLine
 10
1311.253018382
 20
-722.843231038
 30
0.0
 11
1311.253018382
 21
-747.4428181171
 31
0.0
  0
LINE
  5
31F
330
1F
100
AcDbEntity
  8
0
  6
Continuous
 62
     7
370
    15
100
AcDbLine
 10
1309.4529581098
 20
-722.6432313777
 30
0.0
 11
1309.4529581098
 21
-747.6428103268
 31
0.0
  0
LINE
  5
320
330
1F
100
AcDbEntity
  8
0
  6
Continuous
 62
     7
370
    15
100
AcDbLine
 10
-7.7470469447
 20
-755.9171792686
 30
0.0
 11
22.2529244451
 21
-755.9171792686
 31
0.0
  0
LINE
  5
321
330
1F
100
AcDbEntity
  8
0
  6
Continuous
 62
     7
370
    15
100
AcDbLine
 10
22.2529244451
 20
-752.3171816587
 30
0.0
 11
-7.7470469447
 21
-752.3171816587
 31
0.0
  0
LINE
  5
322
330
1F
100
AcDbEntity
  8
0
  6
Continuous
 62
     7
370
    15
100
AcDbLine
 10
-7.5470733615
 20
-752.1171782732
 30
0.0
 11
22.0529508619
 21
-752.1171782732
 31
0.0
  0
LINE
  5
323
330
1F
100
AcDbEntity
  8
0
  6
Continuous
 62
     7
370
    15
100
AcDbLine
 10
-677.7470710846
 20
-752.3171816587
 30
0.0
 11
-707.7470722767
 21
-752.3171816587
 31
0.0
  0
LINE
  5
324
330
1F
100
AcDbEntity
  8
0
  6
Continuous
 62
     7
370
    15
100
AcDbLine
 10
-707.5470763417
 20
-752.1171782732
 30
0.0
 11
-677.9470744701
 21
-752.1171782732
 31
0.0
  0
LINE
  5
325
330
1F
100
AcDbEntity
  8
0
  6
Continuous
 62
     7
370
    15
100
AcDbLine
 10
-707.7470722767
 20
-755.9171792686
 30
0.0
 11
-677.7470710846
 21
-755.9171792686
 31
0.0
  0
LINE
  5
326
330
1F
100
AcDbEntity
  8
0
  6
Continuous
 62
     7
370
    15
100
AcDbLine
 10
-713.8299125405
 20
-763.7432318747
 30
0.0
 11
-739.6642307909
 21
-763.7432318747
 31
0.0
  0
LINE
  5
327
330
1F
100
AcDbEntity
  8
0
  6
Continuous
 62
     7
370
    15
100
AcDbLine
 10
1258.1700754194
 20
-763.7432318747
 30
0.0
 11
1232.3357534436
 21
-763.7432318747
 31
0.0
  0
LINE
  5
328
330
1F
100
AcDbEntity
  8
0
  6
Continuous
 62
     7
370
    15
100
AcDbLine
 10
-5.6642222377
 20
-712.1171796329
 30
0.0
 11
20.1700997381
 21
-712.1171796329
 31
0.0
  0
LINE
  5
329
330
1F
100
AcDbEntity
  8
0
  6
Continuous
 62
     7
370
    15
100
AcDbLine
 10
-705.6642326685
 20
-712.1171796329
 30
0.0
 11
-679.8299181433
 21
-712.1171796329
 31
0.0
  0
LINE
  5
32A
330
1F
100
AcDbEntity
  8
0
  6
Continuous
 62
     7
370
    15
100
AcDbLine
 10
-707.7470722767
 20
-765.1171785414
 30
0.0
 11
-677.7470710846
 21
-765.1171785414
 31
0.0
  0
LINE
  5
32B
330
1F
100
AcDbEntity
  8
0
  6
Continuous
 62
     7
370
    15
100
AcDbLine
 10
-679.7470751377
 20
-767.1171788692
 30
0.0
 11
-705.7470756741
 21
-767.1171788692
 31
0.0
  0
LINE
  5
32C
330
1F
100
AcDbEntity
  8
0
  6
Continuous
 62
     7
370
    15
100
AcDbLine
 10
-707.7470722767
 20
-762.1171799123
 30
0.0
 11
-677.7470710846
 21
-762.1171799123
 31
0.0
  0
LINE
  5
32D
330
1F
100
AcDbEntity
  8
0
  6
Continuous
 62
     7
370
    15
100
AcDbLine
 10
-7.7470469447
 20
-762.1171799123
 30
0.0
 11
22.2529244451
 21
-762.1171799123
 31
0.0
  0
LINE
  5
32E
330
1F
100
AcDbEntity
  8
0
  6
Continuous
 62
     7
370
    15
100
AcDbLine
 10
-7.7470469447
 20
-765.1171785414
 30
0.0
 11
22.2529244451
 21
-765.1171785414
 31
0.0
  0
LINE
  5
32F
330
1F
100
AcDbEntity
  8
0
  6
Continuous
 62
     7
370
    15
100
AcDbLine
 10
20.2529501943
 20
-767.1171788692
 30
0.0
 11
-5.7470726939
 21
-767.1171788692
 31
0.0
  0
LINE
  5
330
330
1F
100
AcDbEntity
  8
0
  6
Continuous
 62
     7
370
    15
100
AcDbLine
 10
-678.7553730579
 20
-724.1171802029
 30
0.0
 11
-707.5470763417
 21
-724.1171802029
 31
0.0
  0
LINE
  5
331
330
1F
100
AcDbEntity
  8
0
  6
Continuous
 62
     7
370
    15
100
AcDbLine
 10
-677.9470744701
 20
-724.1171802029
 30
0.0
 11
-678.7553730579
 21
-724.1171802029
 31
0.0
  0
LINE
  5
332
330
1F
100
AcDbEntity
  8
0
  6
Continuous
 62
     7
370
    15
100
AcDbLine
 10
-680.5353838177
 20
-721.1171797111
 30
0.0
 11
-679.8299181433
 21
-721.1171797111
 31
0.0
  0
LINE
  5
333
330
1F
100
AcDbEntity
  8
0
  6
Continuous
 62
     7
370
    15
100
AcDbLine
 10
-705.6642326685
 20
-721.1171797111
 30
0.0
 11
-680.5353838177
 21
-721.1171797111
 31
0.0
  0
LINE
  5
334
330
1F
100
AcDbEntity
  8
0
  6
Continuous
 62
     7
370
    15
100
AcDbLine
 10
21.2446522741
 20
-724.1171802029
 30
0.0
 11
-7.5470733615
 21
-724.1171802029
 31
0.0
  0
LINE
  5
335
330
1F
100
AcDbEntity
  8
0
  6
Continuous
 62
     7
370
    15
100
AcDbLine
 10
22.0529508619
 20
-724.1171802029
 30
0.0
 11
21.2446522741
 21
-724.1171802029
 31
0.0
  0
LINE
  5
336
330
1F
100
AcDbEntity
  8
0
  6
Continuous
 62
     7
370
    15
100
AcDbLine
 10
19.4646191625
 20
-721.1171797111
 30
0.0
 11
20.1700997381
 21
-721.1171797111
 31
0.0
  0
LINE
  5
337
330
1F
100
AcDbEntity
  8
0
  6
Continuous
 62
     7
370
    15
100
AcDbLine
 10
-5.6642222377
 20
-721.1171797111
 30
0.0
 11
19.4646191625
 21
-721.1171797111
 31
0.0
  0
LINE
  5
338
330
1F
100
AcDbEntity
  8
0
  6
Continuous
 62
     7
370
    15
100
AcDbLine
 10
-21.7470455142
 20
-745.6171800017
 30
0.0
 11
36.2529230146
 21
-745.6171800017
 31
0.0
  0
LINE
  5
339
330
1F
100
AcDbEntity
  8
0
  6
Continuous
 62
     7
370
    15
100
AcDbLine
 10
-21.7470455142
 20
-744.1171806872
 30
0.0
 11
36.2529230146
 21
-744.1171806872
 31
0.0
  0
LINE
  5
33A
330
1F
100
AcDbEntity
  8
0
  6
Continuous
 62
     7
370
    15
100
AcDbLine
 10
-721.7470708462
 20
-744.1171806872
 30
0.0
 11
-663.7470799657
 21
-744.1171806872
 31
0.0
  0
LINE
  5
33B
330
1F
100
AcDbEntity
  8
0
  6
Continuous
 62
     7
370
    15
100
AcDbLine
 10
-721.7470708462
 20
-745.6171800017
 30
0.0
 11
-663.7470799657
 21
-745.6171800017
 31
0.0
  0
LINE
  5
33C
330
1F
100
AcDbEntity
  8
0
  6
Continuous
 62
     7
370
    15
100
AcDbLine
 10
7.5874996213
 20
-726.1171795994
 30
0.0
 11
-21.7470455142
 21
-726.1171795994
 31
0.0
  0
LINE
  5
33D
330
1F
100
AcDbEntity
  8
0
  6
Continuous
 62
     7
370
    15
100
AcDbLine
 10
36.2529230146
 20
-726.1171795994
 30
0.0
 11
7.5874996213
 21
-726.1171795994
 31
0.0
  0
LINE
  5
33E
330
1F
100
AcDbEntity
  8
0
  6
Continuous
 62
     7
370
    15
100
AcDbLine
 10
7.5874996213
 20
-724.6171802848
 30
0.0
 11
-21.7470455142
 21
-724.6171802848
 31
0.0
  0
LINE
  5
33F
330
1F
100
AcDbEntity
  8
0
  6
Continuous
 62
     7
370
    15
100
AcDbLine
 10
36.2529230146
 20
-724.6171802848
 30
0.0
 11
7.5874996213
 21
-724.6171802848
 31
0.0
  0
LINE
  5
340
330
1F
100
AcDbEntity
  8
0
  6
Continuous
 62
     7
370
    15
100
AcDbLine
 10
-692.4125257107
 20
-726.1171795994
 30
0.0
 11
-721.7470708462
 21
-726.1171795994
 31
0.0
  0
LINE
  5
341
330
1F
100
AcDbEntity
  8
0
  6
Continuous
 62
     7
370
    15
100
AcDbLine
 10
-663.7470799657
 20
-726.1171795994
 30
0.0
 11
-692.4125257107
 21
-726.1171795994
 31
0.0
  0
LINE
  5
342
330
1F
100
AcDbEntity
  8
0
  6
Continuous
 62
     7
370
    15
100
AcDbLine
 10
-692.4125257107
 20
-724.6171802848
 30
0.0
 11
-721.7470708462
 21
-724.6171802848
 31
0.0
  0
LINE
  5
343
330
1F
100
AcDbEntity
  8
0
  6
Continuous
 62
     7
370
    15
100
AcDbLine
 10
-663.7470799657
 20
-724.6171802848
 30
0.0
 11
-692.4125257107
 21
-724.6171802848
 31
0.0
  0
LINE
  5
344
330
1F
100
AcDbEntity
  8
0
  6
Continuous
 62
     7
370
    15
100
AcDbLine
 10
36.2529230146
 20
-743.148854804
 30
0.0
 11
-21.7470455142
 21
-743.148854804
 31
0.0
  0
LINE
  5
345
330
1F
100
AcDbEntity
  8
0
  6
Continuous
 62
     7
370
    15
100
AcDbLine
 10
-4.6411085101
 20
-727.137608324
 30
0.0
 11
36.2529230146
 21
-727.137608324
 31
0.0
  0
LINE
  5
346
330
1F
100
AcDbEntity
  8
0
  6
Continuous
 62
     7
370
    15
100
AcDbLine
 10
-21.7470455142
 20
-727.137608324
 30
0.0
 11
-4.6411085101
 21
-727.137608324
 31
0.0
  0
LINE
  5
347
330
1F
100
AcDbEntity
  8
0
  6
Continuous
 62
     7
370
    15
100
AcDbLine
 10
-21.7470455142
 20
-726.1171795994
 30
0.0
 11
36.2529230146
 21
-726.1171795994
 31
0.0
  0
LINE
  5
348
330
1F
100
AcDbEntity
  8
0
  6
Continuous
 62
     7
370
    15
100
AcDbLine
 10
-663.7470799657
 20
-743.148854804
 30
0.0
 11
-721.7470708462
 21
-743.148854804
 31
0.0
  0
LINE
  5
349
330
1F
100
AcDbEntity
  8
0
  6
Continuous
 62
     7
370
    15
100
AcDbLine
 10
-704.6410891386
 20
-727.137608324
 30
0.0
 11
-663.7470799657
 21
-727.137608324
 31
0.0
  0
LINE
  5
34A
330
1F
100
AcDbEntity
  8
0
  6
Continuous
 62
     7
370
    15
100
AcDbLine
 10
-721.7470708462
 20
-727.137608324
 30
0.0
 11
-704.6410891386
 21
-727.137608324
 31
0.0
  0
LINE
  5
34B
330
1F
100
AcDbEntity
  8
0
  6
Continuous
 62
     7
370
    15
100
AcDbLine
 10
-721.7470708462
 20
-726.1171795994
 30
0.0
 11
-663.7470799657
 21
-726.1171795994
 31
0.0
  0
LINE
  5
34C
330
1F
100
AcDbEntity
  8
0
  6
Continuous
 62
     7
370
    15
100
AcDbLine
 10
-707.7470722767
 20
-756.1171789288
 30
0.0
 11
-707.7470722767
 21
-762.1171799123
 31
0.0
  0
LINE
  5
34D
330
1F
100
AcDbEntity
  8
0
  6
Continuous
 62
     7
370
    15
100
AcDbLine
 10
-677.7470710846
 20
-756.1171789288
 30
0.0
 11
-677.7470710846
 21
-762.1171799123
 31
0.0
  0
LINE
  5
34E
330
1F
100
AcDbEntity
  8
0
  6
Continuous
 62
     7
370
    15
100
AcDbLine
 10
-707.7470722767
 20
-756.1171789288
 30
0.0
 11
-677.7470710846
 21
-756.1171789288
 31
0.0
  0
LINE
  5
34F
330
1F
100
AcDbEntity
  8
0
  6
Continuous
 62
     7
370
    15
100
AcDbLine
 10
-7.7470469447
 20
-756.1171789288
 30
0.0
 11
-7.7470469447
 21
-762.1171799123
 31
0.0
  0
LINE
  5
350
330
1F
100
AcDbEntity
  8
0
  6
Continuous
 62
     7
370
    15
100
AcDbLine
 10
22.2529244451
 20
-756.1171789288
 30
0.0
 11
22.2529244451
 21
-762.1171799123
 31
0.0
  0
LINE
  5
351
330
1F
100
AcDbEntity
  8
0
  6
Continuous
 62
     7
370
    15
100
AcDbLine
 10
-7.7470469447
 20
-756.1171789288
 30
0.0
 11
22.2529244451
 21
-756.1171789288
 31
0.0
  0
LINE
  5
352
330
1F
100
AcDbEntity
  8
0
  6
Continuous
 62
     7
370
    15
100
AcDbLine
 10
22.2529244451
 20
-746.4171805054
 30
0.0
 11
-7.7470469447
 21
-746.4171805054
 31
0.0
  0
LINE
  5
353
330
1F
100
AcDbEntity
  8
0
  6
Continuous
 62
     7
370
    15
100
AcDbLine
 10
-7.7470469447
 20
-751.8171806454
 30
0.0
 11
22.2529244451
 21
-751.8171806454
 31
0.0
  0
LINE
  5
354
330
1F
100
AcDbEntity
  8
0
  6
Continuous
 62
     7
370
    15
100
AcDbLine
 10
-7.4470567675
 20
-746.1171791523
 30
0.0
 11
21.9529342679
 21
-746.1171791523
 31
0.0
  0
LINE
  5
355
330
1F
100
AcDbEntity
  8
0
  6
Continuous
 62
     7
370
    15
100
AcDbLine
 10
-677.7470710846
 20
-746.4171805054
 30
0.0
 11
-707.7470722767
 21
-746.4171805054
 31
0.0
  0
LINE
  5
356
330
1F
100
AcDbEntity
  8
0
  6
Continuous
 62
     7
370
    15
100
AcDbLine
 10
-707.7470722767
 20
-751.8171806454
 30
0.0
 11
-677.7470710846
 21
-751.8171806454
 31
0.0
  0
LINE
  5
357
330
1F
100
AcDbEntity
  8
0
  6
Continuous
 62
     7
370
    15
100
AcDbLine
 10
-707.4470746489
 20
-746.1171791523
 30
0.0
 11
-678.0470761629
 21
-746.1171791523
 31
0.0
  0
LINE
  5
358
330
1F
100
AcDbEntity
  8
0
  6
Continuous
 62
     7
370
    15
100
AcDbLine
 10
107.2529029874
 20
-756.1171789288
 30
0.0
 11
22.2529244451
 21
-756.1171789288
 31
0.0
  0
LINE
  5
359
330
1F
100
AcDbEntity
  8
0
  6
Continuous
 62
     7
370
    15
100
AcDbLine
 10
-7.7470469447
 20
-756.1171789288
 30
0.0
 11
-677.7470710846
 21
-756.1171789288
 31
0.0
  0
LINE
  5
35A
330
1F
100
AcDbEntity
  8
0
  6
Continuous
 62
     7
370
    15
100
AcDbLine
 10
-746.7470730813
 20
-756.1171789288
 30
0.0
 11
-792.7470731707
 21
-756.1171789288
 31
0.0
  0
LINE
  5
35B
330
1F
100
AcDbEntity
  8
0
  6
Continuous
 62
     7
370
    15
100
AcDbLine
 10
107.2529029874
 20
-716.1171798229
 30
0.0
 11
-40.2470755549
 21
-716.1171798229
 31
0.0
  0
LINE
  5
35C
330
1F
100
AcDbEntity
  8
0
  6
Continuous
 62
     7
370
    15
100
AcDbLine
 10
-55.2470612498
 20
-716.1171798229
 30
0.0
 11
-653.2470661374
 21
-716.1171798229
 31
0.0
  0
LINE
  5
35D
330
1F
100
AcDbEntity
  8
0
  6
Continuous
 62
     7
370
    15
100
AcDbLine
 10
-668.247074184
 20
-716.1171798229
 30
0.0
 11
-792.7470731707
 21
-716.1171798229
 31
0.0
  0
LINE
  5
35E
330
1F
100
AcDbEntity
  8
0
  6
Continuous
 62
     7
370
    15
100
AcDbLine
 10
-792.7470731707
 20
-756.1171789288
 30
0.0
 11
-792.7470731707
 21
-747.4432316243
 31
0.0
  0
LINE
  5
35F
330
1F
100
AcDbEntity
  8
0
  6
Continuous
 62
     7
370
    15
100
AcDbLine
 10
-792.7470731707
 20
-722.843231038
 30
0.0
 11
-792.7470731707
 21
-716.1171798229
 31
0.0
  0
LINE
  5
360
330
1F
100
AcDbEntity
  8
0
  6
Continuous
 62
     7
370
    15
100
AcDbLine
 10
107.2529029874
 20
-756.1171789288
 30
0.0
 11
107.2529029874
 21
-747.6432312846
 31
0.0
  0
LINE
  5
361
330
1F
100
AcDbEntity
  8
0
  6
Continuous
 62
     7
370
    15
100
AcDbLine
 10
107.2529029874
 20
-722.6432313777
 30
0.0
 11
107.2529029874
 21
-716.1171798229
 31
0.0
  0
LINE
  5
362
330
1F
100
AcDbEntity
  8
0
  6
Continuous
 62
     7
370
    15
100
AcDbLine
 10
-55.1970529528
 20
-748.3309310496
 30
0.0
 11
-40.2970838519
 21
-748.3309310496
 31
0.0
  0
LINE
  5
363
330
1F
100
AcDbEntity
  8
0
  6
Continuous
 62
     7
370
    15
100
AcDbLine
 10
-41.2970709773
 20
-749.3309330761
 30
0.0
 11
-54.1970658274
 21
-749.3309330761
 31
0.0
  0
LINE
  5
364
330
1F
100
AcDbEntity
  8
0
  6
Continuous
 62
     7
370
    15
100
AcDbLine
 10
1171.8029451398
 20
-748.3309310496
 30
0.0
 11
1186.7029142408
 21
-748.3309310496
 31
0.0
  0
LINE
  5
365
330
1F
100
AcDbEntity
  8
0
  6
Continuous
 62
     7
370
    15
100
AcDbLine
 10
1185.7028675107
 20
-749.3309330761
 30
0.0
 11
1172.8028726606
 21
-749.3309330761
 31
0.0
  0
LINE
  5
366
330
1F
100
AcDbEntity
  8
0
  6
Continuous
 62
     7
370
    15
100
AcDbLine
 10
-668.1970733376
 20
-748.3309310496
 30
0.0
 11
-653.2970893355
 21
-748.3309310496
 31
0.0
  0
LINE
  5
367
330
1F
100
AcDbEntity
  8
0
  6
Continuous
 62
     7
370
    15
100
AcDbLine
 10
-654.2970913621
 20
-749.3309330761
 30
0.0
 11
-667.1970713111
 21
-749.3309330761
 31
0.0
  0
LINE
  5
368
330
1F
100
AcDbEntity
  8
0
  6
Continuous
 62
     7
370
    15
100
AcDbLine
 10
558.8029098539
 20
-748.3309310496
 30
0.0
 11
573.7028789548
 21
-748.3309310496
 31
0.0
  0
LINE
  5
369
330
1F
100
AcDbEntity
  8
0
  6
Continuous
 62
     7
370
    15
100
AcDbLine
 10
572.7029514341
 20
-749.3309330761
 30
0.0
 11
559.8029565839
 21
-749.3309330761
 31
0.0
  0
LINE
  5
36A
330
1F
100
AcDbEntity
  8
0
  6
Continuous
 62
     7
370
    15
100
AcDbLine
 10
-635.7471424313
 20
-701.6432311952
 30
0.0
 11
-685.7470723959
 21
-701.6432311952
 31
0.0
  0
LINE
  5
36B
330
1F
100
AcDbEntity
  8
0
  6
Continuous
 62
     7
370
    15
100
AcDbLine
 10
-685.7470723959
 20
-703.643231523
 30
0.0
 11
-635.7471424313
 21
-703.643231523
 31
0.0
  0
LINE
  5
36C
330
1F
100
AcDbEntity
  8
0
  6
Continuous
 62
     7
370
    15
100
AcDbLine
 10
-636.7471444579
 20
-704.6432316869
 30
0.0
 11
-684.7470703693
 21
-704.6432316869
 31
0.0
  0
LINE
  5
36D
330
1F
100
AcDbEntity
  8
0
  6
Continuous
 62
     7
370
    15
100
AcDbLine
 10
1154.2529535321
 20
-703.643231523
 30
0.0
 11
1204.2529058484
 21
-703.643231523
 31
0.0
  0
LINE
  5
36E
330
1F
100
AcDbEntity
  8
0
  6
Continuous
 62
     7
370
    15
100
AcDbLine
 10
1204.2529058484
 20
-701.6432311952
 30
0.0
 11
1154.2529535321
 21
-701.6432311952
 31
0.0
  0
LINE
  5
36F
330
1F
100
AcDbEntity
  8
0
  6
Continuous
 62
     7
370
    15
100
AcDbLine
 10
1203.2528591184
 20
-704.6432316869
 30
0.0
 11
1155.2528810529
 21
-704.6432316869
 31
0.0
  0
LINE
  5
370
330
1F
100
AcDbEntity
  8
0
  6
Continuous
 62
     7
370
    15
100
AcDbLine
 10
-72.7470445605
 20
-703.643231523
 30
0.0
 11
-22.7471518489
 21
-703.643231523
 31
0.0
  0
LINE
  5
371
330
1F
100
AcDbEntity
  8
0
  6
Continuous
 62
     7
370
    15
100
AcDbLine
 10
-22.7471518489
 20
-701.6432311952
 30
0.0
 11
-72.7470445605
 21
-701.6432311952
 31
0.0
  0
LINE
  5
372
330
1F
100
AcDbEntity
  8
0
  6
Continuous
 62
     7
370
    15
100
AcDbLine
 10
-23.7471389743
 20
-704.6432316869
 30
0.0
 11
-71.7470574351
 21
-704.6432316869
 31
0.0
  0
LINE
  5
373
330
1F
100
AcDbEntity
  8
0
  6
Continuous
 62
     7
370
    15
100
AcDbLine
 10
541.2529182462
 20
-703.643231523
 30
0.0
 11
591.2528705625
 21
-703.643231523
 31
0.0
  0
LINE
  5
374
330
1F
100
AcDbEntity
  8
0
  6
Continuous
 62
     7
370
    15
100
AcDbLine
 10
591.2528705625
 20
-701.6432311952
 30
0.0
 11
541.2529182462
 21
-701.6432311952
 31
0.0
  0
LINE
  5
375
330
1F
100
AcDbEntity
  8
0
  6
Continuous
 62
     7
370
    15
100
AcDbLine
 10
590.2528238324
 20
-704.6432316869
 30
0.0
 11
542.2529649762
 21
-704.6432316869
 31
0.0
  0
LINE
  5
376
330
1F
100
AcDbEntity
  8
0
  6
Continuous
 62
     8
370
    15
100
AcDbLine
 10
-711.7470729323
 20
-759.9432308793
 30
0.0
 11
-741.7470741244
 21
-759.9432308793
 31
0.0
  0
LINE
  5
377
330
1F
100
AcDbEntity
  8
0
  6
Continuous
 62
     8
370
    15
100
AcDbLine
 10
-712.8911542865
 20
-761.6603885412
 30
0.0
 11
-711.7470729323
 21
-761.6603885412
 31
0.0
  0
LINE
  5
378
330
1F
100
AcDbEntity
  8
0
  6
Continuous
 62
     8
370
    15
100
AcDbLine
 10
-741.7470741244
 20
-761.6603885412
 30
0.0
 11
-712.8911542865
 21
-761.6603885412
 31
0.0
  0
LINE
  5
379
330
1F
100
AcDbEntity
  8
0
  6
Continuous
 62
     8
370
    15
100
AcDbLine
 10
-711.805649397
 20
-761.8018117368
 30
0.0
 11
-741.6884939345
 21
-761.8018117368
 31
0.0
  0
LINE
  5
37A
330
1F
100
AcDbEntity
  8
0
  6
Continuous
 62
     8
370
    15
100
AcDbLine
 10
-739.8056502612
 20
-763.6846516847
 30
0.0
 11
-713.6884930702
 21
-763.6846516847
 31
0.0
  0
LINE
  5
37B
330
1F
100
AcDbEntity
  8
0
  6
Continuous
 62
     8
370
    15
100
AcDbLine
 10
1259.1087293653
 20
-761.6603885412
 30
0.0
 11
1260.2529001264
 21
-761.6603885412
 31
0.0
  0
LINE
  5
37C
330
1F
100
AcDbEntity
  8
0
  6
Continuous
 62
     8
370
    15
100
AcDbLine
 10
1230.2529287366
 20
-761.6603885412
 30
0.0
 11
1259.1087293653
 21
-761.6603885412
 31
0.0
  0
LINE
  5
37D
330
1F
100
AcDbEntity
  8
0
  6
Continuous
 62
     8
370
    15
100
AcDbLine
 10
1260.2529001264
 20
-759.9432308793
 30
0.0
 11
1230.2529287366
 21
-759.9432308793
 31
0.0
  0
LINE
  5
37E
330
1F
100
AcDbEntity
  8
0
  6
Continuous
 62
     8
370
    15
100
AcDbLine
 10
1260.1942491559
 20
-761.8018117368
 30
0.0
 11
1230.3115797071
 21
-761.8018117368
 31
0.0
  0
LINE
  5
37F
330
1F
100
AcDbEntity
  8
0
  6
Continuous
 62
     8
370
    15
100
AcDbLine
 10
1232.1943712262
 20
-763.6846516847
 30
0.0
 11
1258.3114576368
 21
-763.6846516847
 31
0.0
  0
LINE
  5
380
330
1F
100
AcDbEntity
  8
0
  6
Continuous
 62
     8
370
    15
100
AcDbLine
 10
-0.1719522448
 20
-714.2000225007
 30
0.0
 11
-7.7470469447
 21
-714.2000225007
 31
0.0
  0
LINE
  5
381
330
1F
100
AcDbEntity
  8
0
  6
Continuous
 62
     8
370
    15
100
AcDbLine
 10
22.2529244451
 20
-714.2000225007
 30
0.0
 11
-0.1719522448
 21
-714.2000225007
 31
0.0
  0
LINE
  5
382
330
1F
100
AcDbEntity
  8
0
  6
Continuous
 62
     8
370
    15
100
AcDbLine
 10
-7.7470469447
 20
-715.9171798279
 30
0.0
 11
22.2529244451
 21
-715.9171798279
 31
0.0
  0
LINE
  5
383
330
1F
100
AcDbEntity
  8
0
  6
Continuous
 62
     8
370
    15
100
AcDbLine
 10
-7.6885151835
 20
-714.0586011678
 30
0.0
 11
22.1943330793
 21
-714.0586011678
 31
0.0
  0
LINE
  5
384
330
1F
100
AcDbEntity
  8
0
  6
Continuous
 62
     8
370
    15
100
AcDbLine
 10
20.3114819555
 20
-712.1757584259
 30
0.0
 11
-5.8056640597
 21
-712.1757584259
 31
0.0
  0
LINE
  5
385
330
1F
100
AcDbEntity
  8
0
  6
Continuous
 62
     8
370
    15
100
AcDbLine
 10
-700.1719701262
 20
-714.2000225007
 30
0.0
 11
-707.7470722767
 21
-714.2000225007
 31
0.0
  0
LINE
  5
386
330
1F
100
AcDbEntity
  8
0
  6
Continuous
 62
     8
370
    15
100
AcDbLine
 10
-677.7470710846
 20
-714.2000225007
 30
0.0
 11
-700.1719701262
 21
-714.2000225007
 31
0.0
  0
LINE
  5
387
330
1F
100
AcDbEntity
  8
0
  6
Continuous
 62
     8
370
    15
100
AcDbLine
 10
-707.7470722767
 20
-715.9171798279
 30
0.0
 11
-677.7470710846
 21
-715.9171798279
 31
0.0
  0
LINE
  5
388
330
1F
100
AcDbEntity
  8
0
  6
Continuous
 62
     8
370
    15
100
AcDbLine
 10
-707.688495812
 20
-714.0586011678
 30
0.0
 11
-677.8056549998
 21
-714.0586011678
 31
0.0
  0
LINE
  5
389
330
1F
100
AcDbEntity
  8
0
  6
Continuous
 62
     8
370
    15
100
AcDbLine
 10
-679.6884912225
 20
-712.1757584259
 30
0.0
 11
-705.8056521388
 21
-712.1757584259
 31
0.0
  0
LINE
  5
38A
330
1F
100
AcDbEntity
  8
0
  6
Continuous
 62
     8
370
    15
100
AcDbLine
 10
-677.7470710846
 20
-723.200022579
 30
0.0
 11
-707.7470722767
 21
-723.200022579
 31
0.0
  0
LINE
  5
38B
330
1F
100
AcDbEntity
  8
0
  6
Continuous
 62
     8
370
    15
100
AcDbLine
 10
-678.6216798397
 20
-723.058601246
 30
0.0
 11
-677.8056549998
 21
-723.058601246
 31
0.0
  0
LINE
  5
38C
330
1F
100
AcDbEntity
  8
0
  6
Continuous
 62
     8
370
    15
100
AcDbLine
 10
-707.688495812
 20
-723.058601246
 30
0.0
 11
-678.6216798397
 21
-723.058601246
 31
0.0
  0
LINE
  5
38D
330
1F
100
AcDbEntity
  8
0
  6
Continuous
 62
     8
370
    15
100
AcDbLine
 10
-678.5662996741
 20
-723.9171796113
 30
0.0
 11
-677.7470710846
 21
-723.9171796113
 31
0.0
  0
LINE
  5
38E
330
1F
100
AcDbEntity
  8
0
  6
Continuous
 62
     8
370
    15
100
AcDbLine
 10
-707.7470722767
 20
-723.9171796113
 30
0.0
 11
-678.5662996741
 21
-723.9171796113
 31
0.0
  0
LINE
  5
38F
330
1F
100
AcDbEntity
  8
0
  6
Continuous
 62
     8
370
    15
100
AcDbLine
 10
-680.4016905995
 20
-721.1757585041
 30
0.0
 11
-705.8056521388
 21
-721.1757585041
 31
0.0
  0
LINE
  5
390
330
1F
100
AcDbEntity
  8
0
  6
Continuous
 62
     8
370
    15
100
AcDbLine
 10
-679.6884912225
 20
-721.1757585041
 30
0.0
 11
-680.4016905995
 21
-721.1757585041
 31
0.0
  0
LINE
  5
391
330
1F
100
AcDbEntity
  8
0
  6
Continuous
 62
     8
370
    15
100
AcDbLine
 10
22.2529244451
 20
-723.200022579
 30
0.0
 11
-7.7470469447
 21
-723.200022579
 31
0.0
  0
LINE
  5
392
330
1F
100
AcDbEntity
  8
0
  6
Continuous
 62
     8
370
    15
100
AcDbLine
 10
21.4337182073
 20
-723.9171796113
 30
0.0
 11
22.2529244451
 21
-723.9171796113
 31
0.0
  0
LINE
  5
393
330
1F
100
AcDbEntity
  8
0
  6
Continuous
 62
     8
370
    15
100
AcDbLine
 10
-7.7470469447
 20
-723.9171796113
 30
0.0
 11
21.4337182073
 21
-723.9171796113
 31
0.0
  0
LINE
  5
394
330
1F
100
AcDbEntity
  8
0
  6
Continuous
 62
     8
370
    15
100
AcDbLine
 10
21.3783454923
 20
-723.058601246
 30
0.0
 11
22.1943330793
 21
-723.058601246
 31
0.0
  0
LINE
  5
395
330
1F
100
AcDbEntity
  8
0
  6
Continuous
 62
     8
370
    15
100
AcDbLine
 10
-7.6885151835
 20
-723.058601246
 30
0.0
 11
21.3783454923
 21
-723.058601246
 31
0.0
  0
LINE
  5
396
330
1F
100
AcDbEntity
  8
0
  6
Continuous
 62
     8
370
    15
100
AcDbLine
 10
19.5983123807
 20
-721.1757585041
 30
0.0
 11
-5.8056640597
 21
-721.1757585041
 31
0.0
  0
LINE
  5
397
330
1F
100
AcDbEntity
  8
0
  6
Continuous
 62
     8
370
    15
100
AcDbLine
 10
19.5983123807
 20
-721.1757585041
 30
0.0
 11
20.3114819555
 21
-721.1757585041
 31
0.0
  0
ENDSEC
  0
SECTION
  2
OBJECTS
  0
DICTIONARY
  5
C
330
0
100
AcDbDictionary
281
     1
  3
ACAD_GROUP
350
D
  3
ACAD_LAYOUT
350
1A
  3
ACAD_MLEADERSTYLE
350
39A
  3
ACAD_MLINESTYLE
350
17
  3
ACAD_PLOTSETTINGS
350
19
  3
ACAD_PLOTSTYLENAME
350
E
  3
ACAD_VISUALSTYLE
350
2A
  3
AcDbVariableDictionary
350
398
  0
DICTIONARY
  5
D
102
{ACAD_REACTORS
330
C
102
}
330
C
100
AcDbDictionary
281
     1
  0
DICTIONARY
  5
1A
102
{ACAD_REACTORS
330
C
102
}
330
C
100
AcDbDictionary
281
     1
  3
Layout1
350
1E
  3
Layout2
350
26
  3
Model
350
22
  0
DICTIONARY
  5
39A
102
{ACAD_REACTORS
330
C
102
}
330
C
100
AcDbDictionary
281
     1
  0
DICTIONARY
  5
17
102
{ACAD_REACTORS
330
C
102
}
330
C
100
AcDbDictionary
281
     1
  3
Standard
350
18
  0
DICTIONARY
  5
19
102
{ACAD_REACTORS
330
C
102
}
330
C
100
AcDbDictionary
281
     1
  0
ACDBDICTIONARYWDFLT
  5
E
102
{ACAD_REACTORS
330
C
102
}
330
C
100
AcDbDictionary
281
     1
  3
Normal
350
F
100
AcDbDictionaryWithDefault
340
F
  0
DICTIONARY
  5
2A
102
{ACAD_REACTORS
330
C
102
}
330
C
100
AcDbDictionary
281
     1
  3
2dWireframe
350
2F
  3
3D Hidden
350
31
  3
3dWireframe
350
30
  3
Basic
350
32
  3
Brighten
350
36
  3
ColorChange
350
3A
  3
Conceptual
350
34
  3
Dim
350
35
  3
Facepattern
350
39
  3
Flat
350
2B
  3
FlatWithEdges
350
2C
  3
Gouraud
350
2D
  3
GouraudWithEdges
350
2E
  3
Linepattern
350
38
  3
Realistic
350
33
  3
Thicken
350
37
  0
DICTIONARY
  5
398
102
{ACAD_REACTORS
330
C
102
}
330
C
100
AcDbDictionary
281
     1
  3
DIMASSOC
350
39D
  3
HIDETEXT
350
39E
  3
PSOLHEIGHT
350
39C
  3
PSOLWIDTH
350
39B
  0
LAYOUT
  5
1E
102
{ACAD_REACTORS
330
1A
102
}
330
1A
100
AcDbPlotSettings
  1

  2
none_device
  4

  6

 40
0.0
 41
0.0
 42
0.0
 43
0.0
 44
0.0
 45
0.0
 46
0.0
 47
0.0
 48
0.0
 49
0.0
140
0.0
141
0.0
142
1.0
143
1.0
 70
   688
 72
     0
 73
     0
 74
     5
  7

 75
    16
147
1.0
148
0.0
149
0.0
100
AcDbLayout
  1
Layout1
 70
     1
 71
     1
 10
0.0
 20
0.0
 11
420.0
 21
297.0
 12
0.0
 22
0.0
 32
0.0
 14
1.0000000000E+20
 24
1.0000000000E+20
 34
1.0000000000E+20
 15
-1.0000000000E+20
 25
-1.0000000000E+20
 35
-1.0000000000E+20
146
0.0
 13
0.0
 23
0.0
 33
0.0
 16
1.0
 26
0.0
 36
0.0
 17
0.0
 27
1.0
 37
0.0
 76
     0
330
1B
  0
LAYOUT
  5
26
102
{ACAD_REACTORS
330
1A
102
}
330
1A
100
AcDbPlotSettings
  1

  2
none_device
  4

  6

 40
0.0
 41
0.0
 42
0.0
 43
0.0
 44
0.0
 45
0.0
 46
0.0
 47
0.0
 48
0.0
 49
0.0
140
0.0
141
0.0
142
1.0
143
1.0
 70
   688
 72
     0
 73
     0
 74
     5
  7

 75
    16
147
1.0
148
0.0
149
0.0
100
AcDbLayout
  1
Layout2
 70
     1
 71
     2
 10
0.0
 20
0.0
 11
0.0
 21
0.0
 12
0.0
 22
0.0
 32
0.0
 14
0.0
 24
0.0
 34
0.0
 15
0.0
 25
0.0
 35
0.0
146
0.0
 13
0.0
 23
0.0
 33
0.0
 16
1.0
 26
0.0
 36
0.0
 17
0.0
 27
1.0
 37
0.0
 76
     0
330
23
  0
LAYOUT
  5
22
102
{ACAD_REACTORS
330
1A
102
}
330
1A
100
AcDbPlotSettings
  1

  2
none_device
  4

  6

 40
0.0
 41
0.0
 42
0.0
 43
0.0
 44
0.0
 45
0.0
 46
0.0
 47
0.0
 48
0.0
 49
0.0
140
0.0
141
0.0
142
1.0
143
1.0
 70
  1712
 72
     0
 73
     0
 74
     0
  7

 75
     0
147
1.0
148
0.0
149
0.0
100
AcDbLayout
  1
Model
 70
     1
 71
     0
 10
0.0
 20
0.0
 11
841.0
 21
594.0
 12
0.0
 22
0.0
 32
0.0
 14
0.0
 24
0.0
 34
0.0
 15
841.0
 25
594.0
 35
0.0
146
0.0
 13
0.0
 23
0.0
 33
0.0
 16
1.0
 26
0.0
 36
0.0
 17
0.0
 27
1.0
 37
0.0
 76
     0
330
1F
331
29
  0
MLINESTYLE
  5
18
102
{ACAD_REACTORS
330
17
102
}
330
17
100
AcDbMlineStyle
  2
Standard
 70
     0
  3

 62
   256
 51
90.0
 52
90.0
 71
     2
 49
0.5
 62
   256
  6
BYLAYER
 49
-0.5
 62
   256
  6
BYLAYER
  0
ACDBPLACEHOLDER
  5
F
102
{ACAD_REACTORS
330
E
102
}
330
E
  0
VISUALSTYLE
  5
2F
102
{ACAD_REACTORS
330
2A
102
}
330
2A
100
AcDbVisualStyle
  2
2dWireframe
 70
     4
 71
     0
 72
     2
 73
     0
 90
        0
 40
-0.6
 41
-30.0
 62
     5
 63
     7
 74
     1
 91
        4
 64
     7
 65
   257
 75
     1
175
     1
 42
1.0
 92
        0
 66
   257
 43
1.0
 76
     1
 77
     6
 78
     2
 67
     7
 79
     5
170
     0
171
     0
290
     0
174
     0
 93
        1
 44
0.0
173
     0
291
     0
 45
0.0
1001
ACAD
1000
AcDbSavedByObjectVersion
1070
     0
  0
VISUALSTYLE
  5
31
102
{ACAD_REACTORS
330
2A
102
}
330
2A
100
AcDbVisualStyle
  2
3D Hidden
 70
     6
 71
     1
 72
     2
 73
     2
 90
        0
 40
-0.6
 41
-30.0
 62
     5
 63
     7
 74
     2
 91
        2
 64
     7
 65
   257
 75
     2
175
     1
 42
40.0
 92
        0
 66
   257
 43
1.0
 76
     1
 77
     6
 78
     2
 67
     7
 79
     3
170
     0
171
     0
290
     0
174
     0
 93
        1
 44
0.0
173
     0
291
     0
 45
0.0
1001
ACAD
1000
AcDbSavedByObjectVersion
1070
     0
  0
VISUALSTYLE
  5
30
102
{ACAD_REACTORS
330
2A
102
}
330
2A
100
AcDbVisualStyle
  2
3dWireframe
 70
     5
 71
     0
 72
     2
 73
     0
 90
        0
 40
-0.6
 41
-30.0
 62
     5
 63
     7
 74
     1
 91
        4
 64
     7
 65
   257
 75
     1
175
     1
 42
1.0
 92
        0
 66
   257
 43
1.0
 76
     1
 77
     6
 78
     2
 67
     7
 79
     5
170
     0
171
     0
290
     0
174
     0
 93
        1
 44
0.0
173
     0
291
     0
 45
0.0
1001
ACAD
1000
AcDbSavedByObjectVersion
1070
     0
  0
VISUALSTYLE
  5
32
102
{ACAD_REACTORS
330
2A
102
}
330
2A
100
AcDbVisualStyle
  2
Basic
 70
     7
 71
     1
 72
     0
 73
     1
 90
        0
 40
-0.6
 41
-30.0
 62
     5
 63
     7
 74
     0
 91
        4
 64
     7
 65
   257
 75
     1
175
     1
 42
1.0
 92
        8
 66
     7
 43
1.0
 76
     1
 77
     6
 78
     2
 67
     7
 79
     5
170
     0
171
     0
290
     0
174
     0
 93
        1
 44
0.0
173
     0
291
     1
 45
0.0
1001
ACAD
1000
AcDbSavedByObjectVersion
1070
     0
  0
VISUALSTYLE
  5
36
102
{ACAD_REACTORS
330
2A
102
}
330
2A
100
AcDbVisualStyle
  2
Brighten
 70
    12
 71
     2
 72
     2
 73
     0
 90
        0
 40
-0.6
 41
-30.0
 62
     5
 63
     7
 74
     1
 91
        4
 64
     7
 65
   257
 75
     1
175
     1
 42
1.0
 92
        8
 66
     7
 43
1.0
 76
     1
 77
     6
 78
     2
 67
     7
 79
     5
170
     0
171
     0
290
     0
174
     0
 93
        1
 44
50.0
173
     0
291
     1
 45
0.0
1001
ACAD
1000
AcDbSavedByObjectVersion
1070
     0
  0
VISUALSTYLE
  5
3A
102
{ACAD_REACTORS
330
2A
102
}
330
2A
100
AcDbVisualStyle
  2
ColorChange
 70
    16
 71
     2
 72
     2
 73
     3
 90
        0
 40
-0.6
 41
-30.0
 62
     5
 63
     8
 74
     1
 91
        4
 64
     7
 65
   257
 75
     1
175
     1
 42
1.0
 92
        8
 66
     8
 43
1.0
 76
     1
 77
     6
 78
     2
 67
     7
 79
     5
170
     0
171
     0
290
     0
174
     0
 93
        1
 44
0.0
173
     0
291
     1
 45
0.0
1001
ACAD
1000
AcDbSavedByObjectVersion
1070
     0
  0
VISUALSTYLE
  5
34
102
{ACAD_REACTORS
330
2A
102
}
330
2A
100
AcDbVisualStyle
  2
Conceptual
 70
     9
 71
     3
 72
     2
 73
     0
 90
        0
 40
-0.6
 41
-30.0
 62
     5
 63
     7
 74
     2
 91
        2
 64
     7
 65
   257
 75
     1
175
     1
 42
40.0
 92
        8
 66
     7
 43
1.0
 76
     1
 77
     6
 78
     2
 67
     7
 79
     3
170
     0
171
     0
290
     0
174
     0
 93
        1
 44
0.0
173
     0
291
     0
 45
0.0
1001
ACAD
1000
AcDbSavedByObjectVersion
1070
     0
  0
VISUALSTYLE
  5
35
102
{ACAD_REACTORS
330
2A
102
}
330
2A
100
AcDbVisualStyle
  2
Dim
 70
    11
 71
     2
 72
     2
 73
     0
 90
        0
 40
-0.6
 41
-30.0
 62
     5
 63
     7
 74
     1
 91
        4
 64
     7
 65
   257
 75
     1
175
     1
 42
1.0
 92
        8
 66
     7
 43
1.0
 76
     1
 77
     6
 78
     2
 67
     7
 79
     5
170
     0
171
     0
290
     0
174
     0
 93
        1
 44
-50.0
173
     0
291
     1
 45
0.0
1001
ACAD
1000
AcDbSavedByObjectVersion
1070
     0
  0
VISUALSTYLE
  5
39
102
{ACAD_REACTORS
330
2A
102
}
330
2A
100
AcDbVisualStyle
  2
Facepattern
 70
    15
 71
     2
 72
     2
 73
     0
 90
        0
 40
-0.6
 41
-30.0
 62
     5
 63
     7
 74
     1
 91
        4
 64
     7
 65
   257
 75
     1
175
     1
 42
1.0
 92
        8
 66
     7
 43
1.0
 76
     1
 77
     6
 78
     2
 67
     7
 79
     5
170
     0
171
     0
290
     0
174
     0
 93
        1
 44
0.0
173
     0
291
     1
 45
0.0
1001
ACAD
1000
AcDbSavedByObjectVersion
1070
     0
  0
VISUALSTYLE
  5
2B
102
{ACAD_REACTORS
330
2A
102
}
330
2A
100
AcDbVisualStyle
  2
Flat
 70
     0
 71
     2
 72
     1
 73
     1
 90
        2
 40
-0.6
 41
30.0
 62
     5
 63
     7
 74
     0
 91
        4
 64
     7
 65
   257
 75
     1
175
     1
 42
1.0
 92
        8
 66
     7
 43
1.0
 76
     1
 77
     6
 78
     2
 67
     7
 79
     5
170
     0
171
     0
290
     0
174
     0
 93
       13
 44
0.0
173
     0
291
     1
 45
0.0
1001
ACAD
1000
AcDbSavedByObjectVersion
1070
     0
  0
VISUALSTYLE
  5
2C
102
{ACAD_REACTORS
330
2A
102
}
330
2A
100
AcDbVisualStyle
  2
FlatWithEdges
 70
     1
 71
     2
 72
     1
 73
     1
 90
        2
 40
-0.6
 41
30.0
 62
     5
 63
     7
 74
     1
 91
        4
 64
     7
 65
   257
 75
     1
175
     1
 42
1.0
 92
        0
 66
   257
 43
1.0
 76
     1
 77
     6
 78
     2
 67
     7
 79
     5
170
     0
171
     0
290
     0
174
     0
 93
       13
 44
0.0
173
     0
291
     1
 45
0.0
1001
ACAD
1000
AcDbSavedByObjectVersion
1070
     0
  0
VISUALSTYLE
  5
2D
102
{ACAD_REACTORS
330
2A
102
}
330
2A
100
AcDbVisualStyle
  2
Gouraud
 70
     2
 71
     2
 72
     2
 73
     1
 90
        2
 40
-0.6
 41
30.0
 62
     5
 63
     7
 74
     0
 91
        4
 64
     7
 65
   257
 75
     1
175
     1
 42
1.0
 92
        0
 66
     7
 43
1.0
 76
     1
 77
     6
 78
     2
 67
     7
 79
     5
170
     0
171
     0
290
     0
174
     0
 93
       13
 44
0.0
173
     0
291
     1
 45
0.0
1001
ACAD
1000
AcDbSavedByObjectVersion
1070
     0
  0
VISUALSTYLE
  5
2E
102
{ACAD_REACTORS
330
2A
102
}
330
2A
100
AcDbVisualStyle
  2
GouraudWithEdges
 70
     3
 71
     2
 72
     2
 73
     1
 90
        2
 40
-0.6
 41
30.0
 62
     5
 63
     7
 74
     1
 91
        4
 64
     7
 65
   257
 75
     1
175
     1
 42
1.0
 92
        0
 66
   257
 43
1.0
 76
     1
 77
     6
 78
     2
 67
     7
 79
     5
170
     0
171
     0
290
     0
174
     0
 93
       13
 44
0.0
173
     0
291
     1
 45
0.0
1001
ACAD
1000
AcDbSavedByObjectVersion
1070
     0
  0
VISUALSTYLE
  5
38
102
{ACAD_REACTORS
330
2A
102
}
330
2A
100
AcDbVisualStyle
  2
Linepattern
 70
    14
 71
     2
 72
     2
 73
     0
 90
        0
 40
-0.6
 41
-30.0
 62
     5
 63
     7
 74
     1
 91
        4
 64
     7
 65
   257
 75
     7
175
     7
 42
1.0
 92
        8
 66
     7
 43
1.0
 76
     1
 77
     6
 78
     2
 67
     7
 79
     5
170
     0
171
     0
290
     0
174
     0
 93
        1
 44
0.0
173
     0
291
     1
 45
0.0
1001
ACAD
1000
AcDbSavedByObjectVersion
1070
     0
  0
VISUALSTYLE
  5
33
102
{ACAD_REACTORS
330
2A
102
}
330
2A
100
AcDbVisualStyle
  2
Realistic
 70
     8
 71
     2
 72
     2
 73
     0
 90
        0
 40
-0.6
 41
-30.0
 62
     5
 63
     7
 74
     1
 91
        0
 64
     7
 65
   257
 75
     1
175
     1
 42
1.0
 92
        8
 66
     8
 43
1.0
 76
     1
 77
     6
 78
     2
 67
     7
 79
     5
170
     0
171
     0
290
     0
174
     0
 93
       13
 44
0.0
173
     0
291
     0
 45
0.0
1001
ACAD
1000
AcDbSavedByObjectVersion
1070
     0
  0
VISUALSTYLE
  5
37
102
{ACAD_REACTORS
330
2A
102
}
330
2A
100
AcDbVisualStyle
  2
Thicken
 70
    13
 71
     2
 72
     2
 73
     0
 90
        0
 40
-0.6
 41
-30.0
 62
     5
 63
     7
 74
     1
 91
        4
 64
     7
 65
   257
 75
     1
175
     1
 42
1.0
 92
       12
 66
     7
 43
1.0
 76
     1
 77
     6
 78
     2
 67
     7
 79
     5
170
     0
171
     0
290
     0
174
     0
 93
        1
 44
0.0
173
     0
291
     1
 45
0.0
1001
ACAD
1000
AcDbSavedByObjectVersion
1070
     0
  0
DICTIONARYVAR
  5
39D
102
{ACAD_REACTORS
330
398
102
}
330
398
100
DictionaryVariables
280
     0
  1
2
  0
DICTIONARYVAR
  5
39E
102
{ACAD_REACTORS
330
398
102
}
330
398
100
DictionaryVariables
280
     0
  1
1
  0
DICTIONARYVAR
  5
39C
102
{ACAD_REACTORS
330
398
102
}
330
398
100
DictionaryVariables
280
     0
  1
80.000000
  0
DICTIONARYVAR
  5
39B
102
{ACAD_REACTORS
330
398
102
}
330
398
100
DictionaryVariables
280
     0
  1
5.000000
  0
ENDSEC
  0
EOF
